  0
SECTION
  2
HEADER
  9
$ACADVER
  1
AC1009
  9
$INSBASE
 10
0.0
 20
0.0
 30
0.0
  9
$EXTMIN
 10
-242.579437
 20
-102.004753
 30
0.0
  9
$EXTMAX
 10
57.420547
 20
35.325264
 30
0.0
  9
$LIMMIN
 10
-242.579437
 20
-102.004753
  9
$LIMMAX
 10
57.420547
 20
35.325264
  9
$ORTHOMODE
 70
     0
  9
$REGENMODE
 70
     1
  9
$FILLMODE
 70
     1
  9
$QTEXTMODE
 70
     0
  9
$MIRRTEXT
 70
     1
  9
$DRAGMODE
 70
     2
  9
$LTSCALE
 40
1.0
  9
$OSMODE
 70
     0
  9
$ATTMODE
 70
     1
  9
$TEXTSIZE
 40
1.0
  9
$TRACEWID
 40
0.05
  9
$TEXTSTYLE
  7
STANDARD
  9
$CLAYER
  8
0
  9
$CELTYPE
  6
CONTINUOUS
  9
$CECOLOR
 62
     5
  9
$DIMSCALE
 40
1.0
  9
$DIMASZ
 40
1.0
  9
$DIMEXO
 40
12.0
  9
$DIMDLI
 40
0.38
  9
$DIMRND
 40
0.0
  9
$DIMDLE
 40
0.0
  9
$DIMEXE
 40
12.0
  9
$DIMTP
 40
0.0
  9
$DIMTM
 40
0.0
  9
$DIMTXT
 40
36.0
  9
$DIMCEN
 40
0.09
  9
$DIMTSZ
 40
0.0
  9
$DIMTOL
 70
     0
  9
$DIMLIM
 70
     0
  9
$DIMTIH
 70
     0
  9
$DIMTOH
 70
     1
  9
$DIMSE1
 70
     1
  9
$DIMSE2
 70
     1
  9
$DIMTAD
 70
     1
  9
$DIMZIN
 70
     0
  9
$DIMBLK
  1

  9
$DIMASO
 70
     1
  9
$DIMSHO
 70
     1
  9
$DIMPOST
  1

  9
$DIMAPOST
  1

  9
$DIMALT
 70
     0
  9
$DIMALTD
 70
     2
  9
$DIMALTF
 40
25.4
  9
$DIMLFAC
 40
1.0
  9
$DIMTOFL
 70
     0
  9
$DIMTVP
 40
0.0
  9
$DIMTIX
 70
     0
  9
$DIMSOXD
 70
     0
  9
$DIMSAH
 70
     0
  9
$DIMBLK1
  1

  9
$DIMBLK2
  1

  9
$DIMSTYLE
  2
*UNNAMED
  9
$DIMCLRD
 70
     0
  9
$DIMCLRE
 70
     0
  9
$DIMCLRT
 70
     0
  9
$DIMTFAC
 40
1.0
  9
$DIMGAP
 40
0.0
  9
$LUNITS
 70
     2
  9
$LUPREC
 70
     6
  9
$SKETCHINC
 40
0.1
  9
$FILLETRAD
 40
36.0
  9
$AUNITS
 70
     0
  9
$AUPREC
 70
     0
  9
$MENU
  1
acad
  9
$ELEVATION
 40
0.0
  9
$PELEVATION
 40
0.0
  9
$THICKNESS
 40
0.0
  9
$LIMCHECK
 70
     0
  9
$BLIPMODE
 70
     0
  9
$CHAMFERA
 40
0.5
  9
$CHAMFERB
 40
0.5
  9
$SKPOLY
 70
     0
  9
$TDCREATE
 40
0.0
  9
$TDUPDATE
 40
0.0
  9
$TDINDWG
 40
0.0
  9
$TDUSRTIMER
 40
0.0
  9
$USRTIMER
 70
     1
  9
$ANGBASE
 50
0.0
  9
$ANGDIR
 70
     0
  9
$PDMODE
 70
     0
  9
$PDSIZE
 40
0.0
  9
$PLINEWID
 40
0.0
  9
$COORDS
 70
     1
  9
$SPLFRAME
 70
     0
  9
$SPLINETYPE
 70
     6
  9
$SPLINESEGS
 70
     8
  9
$ATTDIA
 70
     0
  9
$ATTREQ
 70
     1
  9
$HANDLING
 70
     0
  9
$HANDSEED
  5
0
  9
$SURFTAB1
 70
     6
  9
$SURFTAB2
 70
     6
  9
$SURFTYPE
 70
     6
  9
$SURFU
 70
     6
  9
$SURFV
 70
     6
  9
$UCSNAME
  2

  9
$UCSORG
 10
0.0
 20
0.0
 30
0.0
  9
$UCSXDIR
 10
1.0
 20
0.0
 30
0.0
  9
$UCSYDIR
 10
0.0
 20
1.0
 30
0.0
  9
$PUCSNAME
  2

  9
$PUCSORG
 10
0.0
 20
0.0
 30
0.0
  9
$PUCSXDIR
 10
1.0
 20
0.0
 30
0.0
  9
$PUCSYDIR
 10
0.0
 20
1.0
 30
0.0
  9
$USERI1
 70
     0
  9
$USERI2
 70
     0
  9
$USERI3
 70
     0
  9
$USERI4
 70
     0
  9
$USERI5
 70
     0
  9
$USERR1
 40
0.0
  9
$USERR2
 40
0.0
  9
$USERR3
 40
0.0
  9
$USERR4
 40
0.0
  9
$USERR5
 40
0.0
  9
$WORLDVIEW
 70
     1
  9
$SHADEDGE
 70
     3
  9
$SHADEDIF
 70
    70
  9
$TILEMODE
 70
     1
  9
$MAXACTVP
 70
    16
  9
$PINSBASE
 10
0.0
 20
0.0
 30
0.0
  9
$PLIMCHECK
 70
     0
  9
$PEXTMIN
 10
1.000000E+20
 20
1.000000E+20
 30
1.000000E+20
  9
$PEXTMAX
 10
-1.000000E+20
 20
-1.000000E+20
 30
-1.000000E+20
  9
$PLIMMIN
 10
0.0
 20
0.0
  9
$PLIMMAX
 10
12.0
 20
9.0
  9
$UNITMODE
 70
     0
  9
$VISRETAIN
 70
     0
  9
$PLINEGEN
 70
     0
  9
$PSLTSCALE
 70
     1
  9
$TREEDEPTH
 70
  3020
  9
$DWGCODEPAGE
  3
ascii
  0
ENDSEC
  0
SECTION
  2
TABLES
  0
TABLE
  2
VPORT
 70
     1
  0
VPORT
  2
*ACTIVE
 70
     0
 10
0.0
 20
0.0
 11
1.0
 21
1.0
 12
-92.579445
 22
-33.339745
 13
0.0
 23
0.0
 14
1.0
 24
1.0
 15
0.0
 25
0.0
 16
0.0
 26
0.0
 36
1.0
 17
0.0
 27
0.0
 37
0.0
 40
137.330017
 41
2.184519
 42
50.0
 43
0.0
 44
0.0
 50
0.0
 51
0.0
 71
     0
 72
   100
 73
     1
 74
     1
 75
     0
 76
     0
 77
     0
 78
     0
  0
ENDTAB
  0
TABLE
  2
LTYPE
 70
     1
  0
LTYPE
  2
CONTINUOUS
 70
     0
  3
Solid line
 72
    65
 73
     0
 40
0.0
  0
ENDTAB
  0
TABLE
  2
LAYER
 70
     5
  0
LAYER
  2
0
 70
    64
 62
     5
  6
CONTINUOUS
  0
LAYER
  2
CONSTRUC
 70
     0
 62
     7
  6
CONTINUOUS
  0
LAYER
  2
MAXENGMT
 70
     0
 62
     7
  6
CONTINUOUS
  0
LAYER
  2
CONTACT
 70
     0
 62
     7
  6
CONTINUOUS
  0
LAYER
  2
DIMS
 70
     0
 62
     7
  6
CONTINUOUS
  0
ENDTAB
  0
TABLE
  2
STYLE
 70
     1
  0
STYLE
  2
STANDARD
 70
     0
 40
0.0
 41
1.0
 50
0.0
 71
     0
 42
0.2
  3
txt
  4

  0
ENDTAB
  0
TABLE
  2
VIEW
 70
     0
  0
ENDTAB
  0
TABLE
  2
UCS
 70
     0
  0
ENDTAB
  0
TABLE
  2
APPID
 70
     1
  0
APPID
  2
ACAD
 70
    64
  0
ENDTAB
  0
TABLE
  2
DIMSTYLE
 70
     0
  0
ENDTAB
  0
ENDSEC
  0
SECTION
  2
BLOCKS
  0
ENDSEC
  0
SECTION
  2
ENTITIES
  0
POINT
  8
0
  6
CONTINUOUS
 62
    15
 10
52.606113
 20
-40.811195
 30
0.0
  0
LINE
  8
0
  6
CONTINUOUS
 62
    15
 10
-241.247665
 20
21.999998
 30
0.0
 11
55.499996
 21
21.999998
 31
0.0
  0
LINE
  8
0
  6
CONTINUOUS
 62
    15
 10
-48.000004
 20
-0.000003
 30
0.0
 11
-242.579437
 21
0.0
 31
0.0
  0
LINE
  8
0
  6
CONTINUOUS
 62
    15
 10
-53.999996
 20
11.332999
 30
0.0
 11
-242.425232
 21
11.332999
 31
0.0
  0
LINE
  8
0
  6
CONTINUOUS
 62
    15
 10
-53.999996
 20
10.666999
 30
0.0
 11
-242.425232
 21
10.666999
 31
0.0
  0
POINT
  8
0
  6
CONTINUOUS
 62
    15
 10
-80.0
 20
-15.999999
 30
0.0
  0
POINT
  8
0
  6
CONTINUOUS
 62
    15
 10
-99.999992
 20
-13.499999
 30
0.0
  0
POINT
  8
0
  6
CONTINUOUS
 62
    15
 10
-159.999985
 20
-13.499999
 30
0.0
  0
LINE
  8
0
  6
CONTINUOUS
 62
    15
 10
-60.0
 20
-21.999998
 30
0.0
 11
-80.0
 21
-15.999999
 31
0.0
  0
LINE
  8
0
  6
CONTINUOUS
 62
    15
 10
-80.0
 20
-15.999999
 30
0.0
 11
-99.999992
 21
-13.499999
 31
0.0
  0
LINE
  8
0
  6
CONTINUOUS
 62
    15
 10
-99.999992
 20
-13.499999
 30
0.0
 11
-159.999985
 21
-13.499999
 31
0.0
  0
LINE
  8
0
  6
CONTINUOUS
 62
    15
 10
0.0
 20
-99.999992
 30
0.0
 11
0.0
 21
-27.999998
 31
0.0
  0
LINE
  8
0
  6
CONTINUOUS
 62
    15
 10
-16.999998
 20
-36.309425
 30
0.0
 11
-16.999998
 21
-102.004753
 31
0.0
  0
LINE
  8
0
  6
CONTINUOUS
 62
    15
 10
-48.080128
 20
-48.057167
 30
0.0
 11
-47.31739
 21
-47.97298
 31
0.0
  0
LINE
  8
0
  6
CONTINUOUS
 62
    15
 10
-47.31739
 20
-47.97298
 30
0.0
 11
-46.599232
 21
-47.730263
 31
0.0
  0
LINE
  8
0
  6
CONTINUOUS
 62
    15
 10
-46.599232
 20
-47.730263
 30
0.0
 11
-45.945461
 21
-47.334064
 31
0.0
  0
LINE
  8
0
  6
CONTINUOUS
 62
    15
 10
-45.945461
 20
-47.334064
 30
0.0
 11
-45.390755
 21
-46.814003
 31
0.0
  0
LINE
  8
0
  6
CONTINUOUS
 62
    15
 10
-45.390755
 20
-46.814003
 30
0.0
 11
-44.964809
 21
-46.184975
 31
0.0
  0
LINE
  8
0
  6
CONTINUOUS
 62
    15
 10
-44.964809
 20
-46.184975
 30
0.0
 11
-44.682484
 21
-45.476723
 31
0.0
  0
LINE
  8
0
  6
CONTINUOUS
 62
    15
 10
-44.682484
 20
-45.476723
 30
0.0
 11
-44.558662
 21
-44.723915
 31
0.0
  0
LINE
  8
0
  6
CONTINUOUS
 62
    15
 10
-44.558662
 20
-44.723915
 30
0.0
 11
-44.598293
 21
-43.961178
 31
0.0
  0
LINE
  8
0
  6
CONTINUOUS
 62
    15
 10
-44.598293
 20
-43.961178
 30
0.0
 11
-44.801357
 21
-43.233112
 31
0.0
  0
LINE
  8
0
  6
CONTINUOUS
 62
    15
 10
-44.801357
 20
-43.233112
 30
0.0
 11
-45.16291
 21
-42.554562
 31
0.0
  0
LINE
  8
0
  6
CONTINUOUS
 62
    15
 10
-45.16291
 20
-42.554562
 30
0.0
 11
-45.653248
 21
-41.975094
 31
0.0
  0
LINE
  8
0
  6
CONTINUOUS
 62
    15
 10
-45.653248
 20
-41.975094
 30
0.0
 11
-46.26244
 21
-41.514484
 31
0.0
  0
LINE
  8
0
  6
CONTINUOUS
 62
    15
 10
-46.26244
 20
-41.514484
 30
0.0
 11
-46.950893
 21
-41.192543
 31
0.0
  0
LINE
  8
0
  6
CONTINUOUS
 62
    15
 10
-46.950893
 20
-41.192543
 30
0.0
 11
-47.693813
 21
-41.029091
 31
0.0
  0
LINE
  8
0
  6
CONTINUOUS
 62
    15
 10
-47.693813
 20
-41.029091
 30
0.0
 11
-48.456551
 21
-41.029091
 31
0.0
  0
LINE
  8
0
  6
CONTINUOUS
 62
    15
 10
-48.456551
 20
-41.029091
 30
0.0
 11
-49.199471
 21
-41.192543
 31
0.0
  0
LINE
  8
0
  6
CONTINUOUS
 62
    15
 10
-49.199471
 20
-41.192543
 30
0.0
 11
-49.892872
 21
-41.514484
 31
0.0
  0
LINE
  8
0
  6
CONTINUOUS
 62
    15
 10
-49.892872
 20
-41.514484
 30
0.0
 11
-50.49712
 21
-41.975094
 31
0.0
  0
LINE
  8
0
  6
CONTINUOUS
 62
    15
 10
-50.49712
 20
-41.975094
 30
0.0
 11
-50.992397
 21
-42.554562
 31
0.0
  0
LINE
  8
0
  6
CONTINUOUS
 62
    15
 10
-50.992397
 20
-42.554562
 30
0.0
 11
-51.349007
 21
-43.233112
 31
0.0
  0
LINE
  8
0
  6
CONTINUOUS
 62
    15
 10
-51.349007
 20
-43.233112
 30
0.0
 11
-51.552071
 21
-43.961178
 31
0.0
  0
LINE
  8
0
  6
CONTINUOUS
 62
    15
 10
-51.552071
 20
-43.961178
 30
0.0
 11
-51.591702
 21
-44.723915
 31
0.0
  0
LINE
  8
0
  6
CONTINUOUS
 62
    15
 10
-51.591702
 20
-44.723915
 30
0.0
 11
-51.472828
 21
-45.476723
 31
0.0
  0
LINE
  8
0
  6
CONTINUOUS
 62
    15
 10
-51.472828
 20
-45.476723
 30
0.0
 11
-51.190517
 21
-46.184975
 31
0.0
  0
LINE
  8
0
  6
CONTINUOUS
 62
    15
 10
-51.190517
 20
-46.184975
 30
0.0
 11
-50.764576
 21
-46.814003
 31
0.0
  0
LINE
  8
0
  6
CONTINUOUS
 62
    15
 10
-50.764576
 20
-46.814003
 30
0.0
 11
-50.209846
 21
-47.334064
 31
0.0
  0
LINE
  8
0
  6
CONTINUOUS
 62
    15
 10
-50.209846
 20
-47.334064
 30
0.0
 11
-49.551136
 21
-47.730263
 31
0.0
  0
LINE
  8
0
  6
CONTINUOUS
 62
    15
 10
-49.551136
 20
-47.730263
 30
0.0
 11
-48.837917
 21
-47.97298
 31
0.0
  0
LINE
  8
0
  6
CONTINUOUS
 62
    15
 10
-48.837917
 20
-47.97298
 30
0.0
 11
-48.075184
 21
-48.057167
 31
0.0
  0
LINE
  8
0
  6
CONTINUOUS
 62
    15
 10
-45.564095
 20
-42.01965
 30
0.0
 11
-43.053005
 21
-39.498653
 31
0.0
  0
LINE
  8
0
  6
CONTINUOUS
 62
    15
 10
-50.601124
 20
-42.01965
 30
0.0
 11
-53.112209
 21
-39.498653
 31
0.0
  0
LINE
  8
0
  6
CONTINUOUS
 62
    15
 10
-50.601124
 20
-47.046791
 30
0.0
 11
-53.112209
 21
-49.567787
 31
0.0
  0
LINE
  8
0
  6
CONTINUOUS
 62
    15
 10
-45.564095
 20
-47.046791
 30
0.0
 11
-43.053005
 21
-49.567787
 31
0.0
  0
LINE
  8
0
  6
CONTINUOUS
 62
    15
 10
-38.020924
 20
-44.535683
 30
0.0
 11
-44.558662
 21
-44.535683
 31
0.0
  0
LINE
  8
0
  6
CONTINUOUS
 62
    15
 10
-48.080128
 20
-34.471554
 30
0.0
 11
-48.080128
 21
-41.01424
 31
0.0
  0
LINE
  8
0
  6
CONTINUOUS
 62
    15
 10
-45.564095
 20
-42.01965
 30
0.0
 11
-38.020924
 21
-44.535683
 31
0.0
  0
LINE
  8
0
  6
CONTINUOUS
 62
    15
 10
-38.020924
 20
-44.535683
 30
0.0
 11
-45.564095
 21
-47.046791
 31
0.0
  0
LINE
  8
0
  6
CONTINUOUS
 62
    15
 10
-45.564095
 20
-47.046791
 30
0.0
 11
-48.080128
 21
-54.594887
 31
0.0
  0
LINE
  8
0
  6
CONTINUOUS
 62
    15
 10
-48.080128
 20
-54.594887
 30
0.0
 11
-50.601124
 21
-47.046791
 31
0.0
  0
LINE
  8
0
  6
CONTINUOUS
 62
    15
 10
-50.601124
 20
-47.046791
 30
0.0
 11
-58.149239
 21
-44.535683
 31
0.0
  0
LINE
  8
0
  6
CONTINUOUS
 62
    15
 10
-58.149239
 20
-44.535683
 30
0.0
 11
-50.601124
 21
-42.01965
 31
0.0
  0
LINE
  8
0
  6
CONTINUOUS
 62
    15
 10
-50.601124
 20
-42.01965
 30
0.0
 11
-48.080128
 21
-34.471554
 31
0.0
  0
LINE
  8
0
  6
CONTINUOUS
 62
    15
 10
-48.080128
 20
-34.471554
 30
0.0
 11
-45.564095
 21
-42.01965
 31
0.0
  0
LINE
  8
0
  6
CONTINUOUS
 62
    15
 10
-48.080128
 20
-48.057167
 30
0.0
 11
-48.080128
 21
-54.594887
 31
0.0
  0
LINE
  8
0
  6
CONTINUOUS
 62
    15
 10
-51.606556
 20
-44.535683
 30
0.0
 11
-58.149239
 21
-44.535683
 31
0.0
  0
LINE
  8
0
  6
CONTINUOUS
 62
    15
 10
-45.564095
 20
-41.514484
 30
0.0
 11
-43.053005
 21
-39.498653
 31
0.0
  0
LINE
  8
0
  6
CONTINUOUS
 62
    15
 10
-43.053005
 20
-39.498653
 30
0.0
 11
-45.06385
 21
-42.01965
 31
0.0
  0
LINE
  8
0
  6
CONTINUOUS
 62
    15
 10
-51.101368
 20
-42.01965
 30
0.0
 11
-53.112209
 21
-39.498653
 31
0.0
  0
LINE
  8
0
  6
CONTINUOUS
 62
    15
 10
-53.112209
 20
-39.498653
 30
0.0
 11
-50.601124
 21
-41.514484
 31
0.0
  0
LINE
  8
0
  6
CONTINUOUS
 62
    15
 10
-50.601124
 20
-47.556923
 30
0.0
 11
-53.112209
 21
-49.567787
 31
0.0
  0
LINE
  8
0
  6
CONTINUOUS
 62
    15
 10
-53.112209
 20
-49.567787
 30
0.0
 11
-51.101368
 21
-47.046791
 31
0.0
  0
LINE
  8
0
  6
CONTINUOUS
 62
    15
 10
-45.06385
 20
-47.046791
 30
0.0
 11
-43.053005
 21
-49.567787
 31
0.0
  0
LINE
  8
0
  6
CONTINUOUS
 62
    15
 10
-43.053005
 20
-49.567787
 30
0.0
 11
-45.564095
 21
-47.556923
 31
0.0
  0
LINE
  8
0
  6
CONTINUOUS
 62
    15
 10
-47.074715
 20
-45.293495
 30
0.0
 11
-45.06385
 21
-44.535683
 31
0.0
  0
LINE
  8
0
  6
CONTINUOUS
 62
    15
 10
-45.06385
 20
-44.535683
 30
0.0
 11
-47.074715
 21
-43.777912
 31
0.0
  0
LINE
  8
0
  6
CONTINUOUS
 62
    15
 10
-47.074715
 20
-43.777912
 30
0.0
 11
-47.074715
 21
-41.767086
 31
0.0
  0
LINE
  8
0
  6
CONTINUOUS
 62
    15
 10
-47.074715
 20
-41.767086
 30
0.0
 11
-48.466457
 21
-43.351967
 31
0.0
  0
LINE
  8
0
  6
CONTINUOUS
 62
    15
 10
-48.466457
 20
-43.351967
 30
0.0
 11
-50.601124
 21
-42.772499
 31
0.0
  0
LINE
  8
0
  6
CONTINUOUS
 62
    15
 10
-50.601124
 20
-42.772499
 30
0.0
 11
-49.328255
 21
-44.535683
 31
0.0
  0
LINE
  8
0
  6
CONTINUOUS
 62
    15
 10
-49.328255
 20
-44.535683
 30
0.0
 11
-50.601124
 21
-46.298908
 31
0.0
  0
LINE
  8
0
  6
CONTINUOUS
 62
    15
 10
-50.601124
 20
-46.298908
 30
0.0
 11
-48.466457
 21
-45.71944
 31
0.0
  0
LINE
  8
0
  6
CONTINUOUS
 62
    15
 10
-48.466457
 20
-45.71944
 30
0.0
 11
-47.074715
 21
-47.556923
 31
0.0
  0
LINE
  8
0
  6
CONTINUOUS
 62
    15
 10
-47.074715
 20
-47.556923
 30
0.0
 11
-47.074715
 21
-45.293495
 31
0.0
  0
LINE
  8
0
  6
CONTINUOUS
 62
    15
 10
-46.985561
 20
-41.603634
 30
0.0
 11
-46.980598
 21
-41.534298
 31
0.0
  0
LINE
  8
0
  6
CONTINUOUS
 62
    15
 10
-46.980598
 20
-41.534298
 30
0.0
 11
-47.020229
 21
-41.47485
 31
0.0
  0
LINE
  8
0
  6
CONTINUOUS
 62
    15
 10
-47.020229
 20
-41.47485
 30
0.0
 11
-47.079659
 21
-41.440182
 31
0.0
  0
LINE
  8
0
  6
CONTINUOUS
 62
    15
 10
-47.079659
 20
-41.440182
 30
0.0
 11
-47.153957
 21
-41.445148
 31
0.0
  0
LINE
  8
0
  6
CONTINUOUS
 62
    15
 10
-47.153957
 20
-41.445148
 30
0.0
 11
-47.208443
 21
-41.494667
 31
0.0
  0
LINE
  8
0
  6
CONTINUOUS
 62
    15
 10
-47.208443
 20
-41.494667
 30
0.0
 11
-47.228237
 21
-41.564003
 31
0.0
  0
LINE
  8
0
  6
CONTINUOUS
 62
    15
 10
-47.228237
 20
-41.564003
 30
0.0
 11
-47.208443
 21
-41.628376
 31
0.0
  0
LINE
  8
0
  6
CONTINUOUS
 62
    15
 10
-47.208443
 20
-41.628376
 30
0.0
 11
-47.158901
 21
-41.677895
 31
0.0
  0
LINE
  8
0
  6
CONTINUOUS
 62
    15
 10
-47.158901
 20
-41.677895
 30
0.0
 11
-47.084621
 21
-41.692787
 31
0.0
  0
LINE
  8
0
  6
CONTINUOUS
 62
    15
 10
-47.084621
 20
-41.692787
 30
0.0
 11
-47.025173
 21
-41.663044
 31
0.0
  0
LINE
  8
0
  6
CONTINUOUS
 62
    15
 10
-47.025173
 20
-41.663044
 30
0.0
 11
-46.985561
 21
-41.603634
 31
0.0
  0
LINE
  8
0
  6
CONTINUOUS
 62
    15
 10
-47.579903
 20
-45.838295
 30
0.0
 11
-47.228237
 21
-45.555988
 31
0.0
  0
LINE
  8
0
  6
CONTINUOUS
 62
    15
 10
-47.228237
 20
-45.555988
 30
0.0
 11
-46.970692
 21
-45.184528
 31
0.0
  0
LINE
  8
0
  6
CONTINUOUS
 62
    15
 10
-46.970692
 20
-45.184528
 30
0.0
 11
-46.841927
 21
-44.758583
 31
0.0
  0
LINE
  8
0
  6
CONTINUOUS
 62
    15
 10
-46.841927
 20
-44.758583
 30
0.0
 11
-46.841927
 21
-44.307858
 31
0.0
  0
LINE
  8
0
  6
CONTINUOUS
 62
    15
 10
-46.841927
 20
-44.307858
 30
0.0
 11
-46.970692
 21
-43.881916
 31
0.0
  0
LINE
  8
0
  6
CONTINUOUS
 62
    15
 10
-46.970692
 20
-43.881916
 30
0.0
 11
-47.228237
 21
-43.510456
 31
0.0
  0
LINE
  8
0
  6
CONTINUOUS
 62
    15
 10
-47.228237
 20
-43.510456
 30
0.0
 11
-47.579903
 21
-43.223183
 31
0.0
  0
LINE
  8
0
  6
CONTINUOUS
 62
    15
 10
-50.526844
 20
-42.584267
 30
0.0
 11
-50.586269
 21
-42.564449
 31
0.0
  0
LINE
  8
0
  6
CONTINUOUS
 62
    15
 10
-50.586269
 20
-42.564449
 30
0.0
 11
-50.660549
 21
-42.574379
 31
0.0
  0
LINE
  8
0
  6
CONTINUOUS
 62
    15
 10
-50.660549
 20
-42.574379
 30
0.0
 11
-50.710091
 21
-42.628864
 31
0.0
  0
LINE
  8
0
  6
CONTINUOUS
 62
    15
 10
-50.710091
 20
-42.628864
 30
0.0
 11
-50.719997
 21
-42.6982
 31
0.0
  0
LINE
  8
0
  6
CONTINUOUS
 62
    15
 10
-50.719997
 20
-42.6982
 30
0.0
 11
-50.69524
 21
-42.762569
 31
0.0
  0
LINE
  8
0
  6
CONTINUOUS
 62
    15
 10
-50.69524
 20
-42.762569
 30
0.0
 11
-50.640755
 21
-42.807167
 31
0.0
  0
LINE
  8
0
  6
CONTINUOUS
 62
    15
 10
-50.640755
 20
-42.807167
 30
0.0
 11
-50.566456
 21
-42.812092
 31
0.0
  0
LINE
  8
0
  6
CONTINUOUS
 62
    15
 10
-50.566456
 20
-42.812092
 30
0.0
 11
-50.507027
 21
-42.772499
 31
0.0
  0
LINE
  8
0
  6
CONTINUOUS
 62
    15
 10
-50.507027
 20
-42.772499
 30
0.0
 11
-50.472359
 21
-42.713051
 31
0.0
  0
LINE
  8
0
  6
CONTINUOUS
 62
    15
 10
-50.472359
 20
-42.713051
 30
0.0
 11
-50.477303
 21
-42.643715
 31
0.0
  0
LINE
  8
0
  6
CONTINUOUS
 62
    15
 10
-50.477303
 20
-42.643715
 30
0.0
 11
-50.526844
 21
-42.584267
 31
0.0
  0
LINE
  8
0
  6
CONTINUOUS
 62
    15
 10
-44.959846
 20
-44.66943
 30
0.0
 11
-44.885567
 21
-44.649616
 31
0.0
  0
LINE
  8
0
  6
CONTINUOUS
 62
    15
 10
-44.885567
 20
-44.649616
 30
0.0
 11
-44.840992
 21
-44.595131
 31
0.0
  0
LINE
  8
0
  6
CONTINUOUS
 62
    15
 10
-44.840992
 20
-44.595131
 30
0.0
 11
-44.831081
 21
-44.530758
 31
0.0
  0
LINE
  8
0
  6
CONTINUOUS
 62
    15
 10
-44.831081
 20
-44.530758
 30
0.0
 11
-44.855843
 21
-44.461422
 31
0.0
  0
LINE
  8
0
  6
CONTINUOUS
 62
    15
 10
-44.855843
 20
-44.461422
 30
0.0
 11
-44.915272
 21
-44.426754
 31
0.0
  0
LINE
  8
0
  6
CONTINUOUS
 62
    15
 10
-44.915272
 20
-44.426754
 30
0.0
 11
-44.989571
 21
-44.426754
 31
0.0
  0
LINE
  8
0
  6
CONTINUOUS
 62
    15
 10
-44.989571
 20
-44.426754
 30
0.0
 11
-45.053944
 21
-44.461422
 31
0.0
  0
LINE
  8
0
  6
CONTINUOUS
 62
    15
 10
-45.053944
 20
-44.461422
 30
0.0
 11
-45.078724
 21
-44.530758
 31
0.0
  0
LINE
  8
0
  6
CONTINUOUS
 62
    15
 10
-45.078724
 20
-44.530758
 30
0.0
 11
-45.06385
 21
-44.595131
 31
0.0
  0
LINE
  8
0
  6
CONTINUOUS
 62
    15
 10
-45.06385
 20
-44.595131
 30
0.0
 11
-45.024239
 21
-44.649616
 31
0.0
  0
LINE
  8
0
  6
CONTINUOUS
 62
    15
 10
-45.024239
 20
-44.649616
 30
0.0
 11
-44.959846
 21
-44.66943
 31
0.0
  0
LINE
  8
0
  6
CONTINUOUS
 62
    15
 10
-47.579903
 20
-43.277668
 30
0.0
 11
-47.753242
 21
-43.559975
 31
0.0
  0
LINE
  8
0
  6
CONTINUOUS
 62
    15
 10
-47.579903
 20
-45.793697
 30
0.0
 11
-47.827541
 21
-45.541134
 31
0.0
  0
LINE
  8
0
  6
CONTINUOUS
 62
    15
 10
-48.337673
 20
-45.536171
 30
0.0
 11
-48.020699
 21
-45.486652
 31
0.0
  0
LINE
  8
0
  6
CONTINUOUS
 62
    15
 10
-48.020699
 20
-45.486652
 30
0.0
 11
-47.743336
 21
-45.34798
 31
0.0
  0
LINE
  8
0
  6
CONTINUOUS
 62
    15
 10
-47.743336
 20
-45.34798
 30
0.0
 11
-47.520454
 21
-45.12508
 31
0.0
  0
LINE
  8
0
  6
CONTINUOUS
 62
    15
 10
-47.520454
 20
-45.12508
 30
0.0
 11
-47.376839
 21
-44.847736
 31
0.0
  0
LINE
  8
0
  6
CONTINUOUS
 62
    15
 10
-47.376839
 20
-44.847736
 30
0.0
 11
-47.332264
 21
-44.535683
 31
0.0
  0
LINE
  8
0
  6
CONTINUOUS
 62
    15
 10
-47.332264
 20
-44.535683
 30
0.0
 11
-47.376839
 21
-44.218708
 31
0.0
  0
LINE
  8
0
  6
CONTINUOUS
 62
    15
 10
-47.376839
 20
-44.218708
 30
0.0
 11
-47.520454
 21
-43.941364
 31
0.0
  0
LINE
  8
0
  6
CONTINUOUS
 62
    15
 10
-47.520454
 20
-43.941364
 30
0.0
 11
-47.743336
 21
-43.718502
 31
0.0
  0
LINE
  8
0
  6
CONTINUOUS
 62
    15
 10
-47.743336
 20
-43.718502
 30
0.0
 11
-48.020699
 21
-43.574867
 31
0.0
  0
LINE
  8
0
  6
CONTINUOUS
 62
    15
 10
-48.020699
 20
-43.574867
 30
0.0
 11
-48.337673
 21
-43.53027
 31
0.0
  0
LINE
  8
0
  6
CONTINUOUS
 62
    15
 10
-48.337673
 20
-43.53027
 30
0.0
 11
-48.649708
 21
-43.574867
 31
0.0
  0
LINE
  8
0
  6
CONTINUOUS
 62
    15
 10
-48.649708
 20
-43.574867
 30
0.0
 11
-48.927071
 21
-43.718502
 31
0.0
  0
LINE
  8
0
  6
CONTINUOUS
 62
    15
 10
-48.927071
 20
-43.718502
 30
0.0
 11
-49.149952
 21
-43.941364
 31
0.0
  0
LINE
  8
0
  6
CONTINUOUS
 62
    15
 10
-49.149952
 20
-43.941364
 30
0.0
 11
-49.288624
 21
-44.218708
 31
0.0
  0
LINE
  8
0
  6
CONTINUOUS
 62
    15
 10
-49.288624
 20
-44.218708
 30
0.0
 11
-49.338161
 21
-44.535683
 31
0.0
  0
LINE
  8
0
  6
CONTINUOUS
 62
    15
 10
-49.338161
 20
-44.535683
 30
0.0
 11
-49.288624
 21
-44.847736
 31
0.0
  0
LINE
  8
0
  6
CONTINUOUS
 62
    15
 10
-49.288624
 20
-44.847736
 30
0.0
 11
-49.149952
 21
-45.12508
 31
0.0
  0
LINE
  8
0
  6
CONTINUOUS
 62
    15
 10
-49.149952
 20
-45.12508
 30
0.0
 11
-48.927071
 21
-45.34798
 31
0.0
  0
LINE
  8
0
  6
CONTINUOUS
 62
    15
 10
-48.927071
 20
-45.34798
 30
0.0
 11
-48.649708
 21
-45.486652
 31
0.0
  0
LINE
  8
0
  6
CONTINUOUS
 62
    15
 10
-48.649708
 20
-45.486652
 30
0.0
 11
-48.337673
 21
-45.536171
 31
0.0
  0
LINE
  8
0
  6
CONTINUOUS
 62
    15
 10
-50.690273
 20
-46.249386
 30
0.0
 11
-50.734852
 21
-46.313759
 31
0.0
  0
LINE
  8
0
  6
CONTINUOUS
 62
    15
 10
-50.734852
 20
-46.313759
 30
0.0
 11
-50.744759
 21
-46.37817
 31
0.0
  0
LINE
  8
0
  6
CONTINUOUS
 62
    15
 10
-50.744759
 20
-46.37817
 30
0.0
 11
-50.710091
 21
-46.442543
 31
0.0
  0
LINE
  8
0
  6
CONTINUOUS
 62
    15
 10
-50.710091
 20
-46.442543
 30
0.0
 11
-50.645699
 21
-46.482174
 31
0.0
  0
LINE
  8
0
  6
CONTINUOUS
 62
    15
 10
-50.645699
 20
-46.482174
 30
0.0
 11
-50.571419
 21
-46.472248
 31
0.0
  0
LINE
  8
0
  6
CONTINUOUS
 62
    15
 10
-50.571419
 20
-46.472248
 30
0.0
 11
-50.516933
 21
-46.432613
 31
0.0
  0
LINE
  8
0
  6
CONTINUOUS
 62
    15
 10
-50.516933
 20
-46.432613
 30
0.0
 11
-50.492153
 21
-46.368244
 31
0.0
  0
LINE
  8
0
  6
CONTINUOUS
 62
    15
 10
-50.492153
 20
-46.368244
 30
0.0
 11
-50.507027
 21
-46.298908
 31
0.0
  0
LINE
  8
0
  6
CONTINUOUS
 62
    15
 10
-50.507027
 20
-46.298908
 30
0.0
 11
-50.551601
 21
-46.244423
 31
0.0
  0
LINE
  8
0
  6
CONTINUOUS
 62
    15
 10
-50.551601
 20
-46.244423
 30
0.0
 11
-50.625881
 21
-46.229572
 31
0.0
  0
LINE
  8
0
  6
CONTINUOUS
 62
    15
 10
-50.625881
 20
-46.229572
 30
0.0
 11
-50.690273
 21
-46.249386
 31
0.0
  0
LINE
  8
0
  6
CONTINUOUS
 62
    15
 10
-47.243111
 20
-47.547035
 30
0.0
 11
-47.20348
 21
-47.611408
 31
0.0
  0
LINE
  8
0
  6
CONTINUOUS
 62
    15
 10
-47.20348
 20
-47.611408
 30
0.0
 11
-47.139088
 21
-47.636189
 31
0.0
  0
LINE
  8
0
  6
CONTINUOUS
 62
    15
 10
-47.139088
 20
-47.636189
 30
0.0
 11
-47.064808
 21
-47.621334
 31
0.0
  0
LINE
  8
0
  6
CONTINUOUS
 62
    15
 10
-47.064808
 20
-47.621334
 30
0.0
 11
-47.020229
 21
-47.57674
 31
0.0
  0
LINE
  8
0
  6
CONTINUOUS
 62
    15
 10
-47.020229
 20
-47.57674
 30
0.0
 11
-47.000416
 21
-47.507404
 31
0.0
  0
LINE
  8
0
  6
CONTINUOUS
 62
    15
 10
-47.000416
 20
-47.507404
 30
0.0
 11
-47.020229
 21
-47.443031
 31
0.0
  0
LINE
  8
0
  6
CONTINUOUS
 62
    15
 10
-47.020229
 20
-47.443031
 30
0.0
 11
-47.074715
 21
-47.393471
 31
0.0
  0
LINE
  8
0
  6
CONTINUOUS
 62
    15
 10
-47.074715
 20
-47.393471
 30
0.0
 11
-47.148994
 21
-47.388546
 31
0.0
  0
LINE
  8
0
  6
CONTINUOUS
 62
    15
 10
-47.148994
 20
-47.388546
 30
0.0
 11
-47.208443
 21
-47.418251
 31
0.0
  0
LINE
  8
0
  6
CONTINUOUS
 62
    15
 10
-47.208443
 20
-47.418251
 30
0.0
 11
-47.248055
 21
-47.482624
 31
0.0
  0
LINE
  8
0
  6
CONTINUOUS
 62
    15
 10
-47.248055
 20
-47.482624
 30
0.0
 11
-47.243111
 21
-47.547035
 31
0.0
  0
LINE
  8
0
  6
CONTINUOUS
 62
    15
 10
-37.807949
 20
-43.371784
 30
0.0
 11
-34.286488
 21
-43.371784
 31
0.0
  0
LINE
  8
0
  6
CONTINUOUS
 62
    15
 10
-34.286488
 20
-43.371784
 30
0.0
 11
-34.286488
 21
-43.881916
 31
0.0
  0
LINE
  8
0
  6
CONTINUOUS
 62
    15
 10
-34.286488
 20
-43.881916
 30
0.0
 11
-36.956062
 21
-45.372719
 31
0.0
  0
LINE
  8
0
  6
CONTINUOUS
 62
    15
 10
-36.956062
 20
-45.372719
 30
0.0
 11
-34.286488
 21
-45.387569
 31
0.0
  0
LINE
  8
0
  6
CONTINUOUS
 62
    15
 10
-34.286488
 20
-45.387569
 30
0.0
 11
-34.286488
 21
-45.89278
 31
0.0
  0
LINE
  8
0
  6
CONTINUOUS
 62
    15
 10
-34.286488
 20
-45.89278
 30
0.0
 11
-37.807949
 21
-45.89278
 31
0.0
  0
LINE
  8
0
  6
CONTINUOUS
 62
    15
 10
-37.807949
 20
-45.89278
 30
0.0
 11
-37.807949
 21
-45.387569
 31
0.0
  0
LINE
  8
0
  6
CONTINUOUS
 62
    15
 10
-37.807949
 20
-45.387569
 30
0.0
 11
-35.286976
 21
-43.881916
 31
0.0
  0
LINE
  8
0
  6
CONTINUOUS
 62
    15
 10
-35.286976
 20
-43.881916
 30
0.0
 11
-37.807949
 21
-43.881916
 31
0.0
  0
LINE
  8
0
  6
CONTINUOUS
 62
    15
 10
-37.807949
 20
-43.881916
 30
0.0
 11
-37.807949
 21
-43.371784
 31
0.0
  0
LINE
  8
0
  6
CONTINUOUS
 62
    15
 10
-38.020924
 20
-44.535683
 30
0.0
 11
-44.563606
 21
-44.535683
 31
0.0
  0
LINE
  8
0
  6
CONTINUOUS
 62
    15
 10
-38.020924
 20
-44.535683
 30
0.0
 11
-45.569019
 21
-47.051716
 31
0.0
  0
LINE
  8
0
  6
CONTINUOUS
 62
    15
 10
-48.080128
 20
-54.594887
 30
0.0
 11
-48.080128
 21
-48.052204
 31
0.0
  0
LINE
  8
0
  6
CONTINUOUS
 62
    15
 10
-48.080128
 20
-54.594887
 30
0.0
 11
-50.596157
 21
-47.046791
 31
0.0
  0
LINE
  8
0
  6
CONTINUOUS
 62
    15
 10
-58.149239
 20
-44.535683
 30
0.0
 11
-51.606556
 21
-44.535683
 31
0.0
  0
LINE
  8
0
  6
CONTINUOUS
 62
    15
 10
-58.149239
 20
-44.535683
 30
0.0
 11
-50.601143
 21
-42.01965
 31
0.0
  0
LINE
  8
0
  6
CONTINUOUS
 62
    15
 10
-69.569168
 20
-20.501842
 30
0.0
 11
-69.463692
 21
-20.711241
 31
0.0
  0
LINE
  8
0
  6
CONTINUOUS
 62
    15
 10
-69.463692
 20
-20.711241
 30
0.0
 11
-69.410027
 21
-20.903051
 31
0.0
  0
LINE
  8
0
  6
CONTINUOUS
 62
    15
 10
-69.410027
 20
-20.903051
 30
0.0
 11
-69.400475
 21
-21.077559
 31
0.0
  0
LINE
  8
0
  6
CONTINUOUS
 62
    15
 10
-69.400475
 20
-21.077559
 30
0.0
 11
-69.427307
 21
-21.235044
 31
0.0
  0
LINE
  8
0
  6
CONTINUOUS
 62
    15
 10
-69.427307
 20
-21.235044
 30
0.0
 11
-69.482803
 21
-21.375795
 31
0.0
  0
LINE
  8
0
  6
CONTINUOUS
 62
    15
 10
-69.482803
 20
-21.375795
 30
0.0
 11
-69.55925
 21
-21.50009
 31
0.0
  0
LINE
  8
0
  6
CONTINUOUS
 62
    15
 10
-69.55925
 20
-21.50009
 30
0.0
 11
-69.648933
 21
-21.608217
 31
0.0
  0
LINE
  8
0
  6
CONTINUOUS
 62
    15
 10
-69.648933
 20
-21.608217
 30
0.0
 11
-69.744125
 21
-21.700459
 31
0.0
  0
LINE
  8
0
  6
CONTINUOUS
 62
    15
 10
-69.744125
 20
-21.700459
 30
0.0
 11
-69.837112
 21
-21.777096
 31
0.0
  0
LINE
  8
0
  6
CONTINUOUS
 62
    15
 10
-71.712631
 20
-20.363979
 30
0.0
 11
-71.697929
 21
-20.166777
 31
0.0
  0
LINE
  8
0
  6
CONTINUOUS
 62
    15
 10
-71.697929
 20
-20.166777
 30
0.0
 11
-71.654556
 21
-19.991419
 31
0.0
  0
LINE
  8
0
  6
CONTINUOUS
 62
    15
 10
-71.654556
 20
-19.991419
 30
0.0
 11
-71.583626
 21
-19.841875
 31
0.0
  0
LINE
  8
0
  6
CONTINUOUS
 62
    15
 10
-71.583626
 20
-19.841875
 30
0.0
 11
-71.486221
 21
-19.722116
 31
0.0
  0
LINE
  8
0
  6
CONTINUOUS
 62
    15
 10
-71.486221
 20
-19.722116
 30
0.0
 11
-71.363464
 21
-19.636118
 31
0.0
  0
LINE
  8
0
  6
CONTINUOUS
 62
    15
 10
-71.363464
 20
-19.636118
 30
0.0
 11
-71.216446
 21
-19.587847
 31
0.0
  0
LINE
  8
0
  6
CONTINUOUS
 62
    15
 10
-71.216446
 20
-19.587847
 30
0.0
 11
-71.046272
 21
-19.581274
 31
0.0
  0
LINE
  8
0
  6
CONTINUOUS
 62
    15
 10
-71.046272
 20
-19.581274
 30
0.0
 11
-70.854057
 21
-19.620375
 31
0.0
  0
LINE
  8
0
  6
CONTINUOUS
 62
    15
 10
-70.854057
 20
-19.620375
 30
0.0
 11
-70.640884
 21
-19.709118
 31
0.0
  0
LINE
  8
0
  6
CONTINUOUS
 62
    15
 10
-70.774857
 20
-20.122707
 30
0.0
 11
-70.632256
 21
-19.915012
 31
0.0
  0
LINE
  8
0
  6
CONTINUOUS
 62
    15
 10
-70.632256
 20
-19.915012
 30
0.0
 11
-70.477531
 21
-19.752989
 31
0.0
  0
LINE
  8
0
  6
CONTINUOUS
 62
    15
 10
-70.477531
 20
-19.752989
 30
0.0
 11
-70.31839
 21
-19.638905
 31
0.0
  0
LINE
  8
0
  6
CONTINUOUS
 62
    15
 10
-70.31839
 20
-19.638905
 30
0.0
 11
-70.16256
 21
-19.575029
 31
0.0
  0
LINE
  8
0
  6
CONTINUOUS
 62
    15
 10
-70.16256
 20
-19.575029
 30
0.0
 11
-70.017746
 21
-19.563637
 31
0.0
  0
LINE
  8
0
  6
CONTINUOUS
 62
    15
 10
-70.017746
 20
-19.563637
 30
0.0
 11
-69.891685
 21
-19.606991
 31
0.0
  0
LINE
  8
0
  6
CONTINUOUS
 62
    15
 10
-69.891685
 20
-19.606991
 30
0.0
 11
-69.792084
 21
-19.707365
 31
0.0
  0
LINE
  8
0
  6
CONTINUOUS
 62
    15
 10
-69.792084
 20
-19.707365
 30
0.0
 11
-69.726662
 21
-19.867025
 31
0.0
  0
LINE
  8
0
  6
CONTINUOUS
 62
    15
 10
-69.726662
 20
-19.867025
 30
0.0
 11
-69.70314
 21
-20.088245
 31
0.0
  0
LINE
  8
0
  6
CONTINUOUS
 62
    15
 10
-71.042801
 20
-20.743107
 30
0.0
 11
-70.944115
 21
-20.565809
 31
0.0
  0
LINE
  8
0
  6
CONTINUOUS
 62
    15
 10
-70.944115
 20
-20.565809
 30
0.0
 11
-70.828896
 21
-20.425108
 31
0.0
  0
LINE
  8
0
  6
CONTINUOUS
 62
    15
 10
-70.828896
 20
-20.425108
 30
0.0
 11
-70.700432
 21
-20.321852
 31
0.0
  0
LINE
  8
0
  6
CONTINUOUS
 62
    15
 10
-70.700432
 20
-20.321852
 30
0.0
 11
-70.562065
 21
-20.256891
 31
0.0
  0
LINE
  8
0
  6
CONTINUOUS
 62
    15
 10
-70.562065
 20
-20.256891
 30
0.0
 11
-70.417068
 21
-20.231077
 31
0.0
  0
LINE
  8
0
  6
CONTINUOUS
 62
    15
 10
-70.417068
 20
-20.231077
 30
0.0
 11
-70.268776
 21
-20.245262
 31
0.0
  0
LINE
  8
0
  6
CONTINUOUS
 62
    15
 10
-70.268776
 20
-20.245262
 30
0.0
 11
-70.120476
 21
-20.300295
 31
0.0
  0
LINE
  8
0
  6
CONTINUOUS
 62
    15
 10
-70.120476
 20
-20.300295
 30
0.0
 11
-69.975487
 21
-20.397028
 31
0.0
  0
LINE
  8
0
  6
CONTINUOUS
 62
    15
 10
-69.975487
 20
-20.397028
 30
0.0
 11
-69.837112
 21
-20.536312
 31
0.0
  0
LINE
  8
0
  6
CONTINUOUS
 62
    15
 10
-70.372971
 20
-20.812038
 30
0.0
 11
-70.307915
 21
-20.981581
 31
0.0
  0
LINE
  8
0
  6
CONTINUOUS
 62
    15
 10
-70.307915
 20
-20.981581
 30
0.0
 11
-70.289169
 21
-21.1446
 31
0.0
  0
LINE
  8
0
  6
CONTINUOUS
 62
    15
 10
-70.289169
 20
-21.1446
 30
0.0
 11
-70.313423
 21
-21.299675
 31
0.0
  0
LINE
  8
0
  6
CONTINUOUS
 62
    15
 10
-70.313423
 20
-21.299675
 30
0.0
 11
-70.37738
 21
-21.445387
 31
0.0
  0
LINE
  8
0
  6
CONTINUOUS
 62
    15
 10
-70.37738
 20
-21.445387
 30
0.0
 11
-70.477715
 21
-21.580324
 31
0.0
  0
LINE
  8
0
  6
CONTINUOUS
 62
    15
 10
-70.477715
 20
-21.580324
 30
0.0
 11
-70.611137
 21
-21.70306
 31
0.0
  0
LINE
  8
0
  6
CONTINUOUS
 62
    15
 10
-70.611137
 20
-21.70306
 30
0.0
 11
-70.774323
 21
-21.812178
 31
0.0
  0
LINE
  8
0
  6
CONTINUOUS
 62
    15
 10
-70.774323
 20
-21.812178
 30
0.0
 11
-70.963966
 21
-21.906263
 31
0.0
  0
LINE
  8
0
  6
CONTINUOUS
 62
    15
 10
-70.963966
 20
-21.906263
 30
0.0
 11
-71.176773
 21
-21.983898
 31
0.0
  0
LINE
  8
0
  6
CONTINUOUS
 62
    15
 10
-75.063004
 20
-18.927357
 30
0.0
 11
-75.048302
 21
-18.730154
 31
0.0
  0
LINE
  8
0
  6
CONTINUOUS
 62
    15
 10
-75.048302
 20
-18.730154
 30
0.0
 11
-75.004929
 21
-18.554796
 31
0.0
  0
LINE
  8
0
  6
CONTINUOUS
 62
    15
 10
-75.004929
 20
-18.554796
 30
0.0
 11
-74.933998
 21
-18.405252
 31
0.0
  0
LINE
  8
0
  6
CONTINUOUS
 62
    15
 10
-74.933998
 20
-18.405252
 30
0.0
 11
-74.836594
 21
-18.285494
 31
0.0
  0
LINE
  8
0
  6
CONTINUOUS
 62
    15
 10
-74.836594
 20
-18.285494
 30
0.0
 11
-74.713837
 21
-18.199495
 31
0.0
  0
LINE
  8
0
  6
CONTINUOUS
 62
    15
 10
-74.713837
 20
-18.199495
 30
0.0
 11
-74.566818
 21
-18.151224
 31
0.0
  0
LINE
  8
0
  6
CONTINUOUS
 62
    15
 10
-74.566818
 20
-18.151224
 30
0.0
 11
-74.396645
 21
-18.144651
 31
0.0
  0
LINE
  8
0
  6
CONTINUOUS
 62
    15
 10
-74.396645
 20
-18.144651
 30
0.0
 11
-74.20443
 21
-18.183752
 31
0.0
  0
LINE
  8
0
  6
CONTINUOUS
 62
    15
 10
-74.20443
 20
-18.183752
 30
0.0
 11
-73.991257
 21
-18.272495
 31
0.0
  0
LINE
  8
0
  6
CONTINUOUS
 62
    15
 10
-74.125229
 20
-18.686085
 30
0.0
 11
-73.982628
 21
-18.47839
 31
0.0
  0
LINE
  8
0
  6
CONTINUOUS
 62
    15
 10
-73.982628
 20
-18.47839
 30
0.0
 11
-73.827904
 21
-18.316366
 31
0.0
  0
LINE
  8
0
  6
CONTINUOUS
 62
    15
 10
-73.827904
 20
-18.316366
 30
0.0
 11
-73.668762
 21
-18.202282
 31
0.0
  0
LINE
  8
0
  6
CONTINUOUS
 62
    15
 10
-73.668762
 20
-18.202282
 30
0.0
 11
-73.512932
 21
-18.138407
 31
0.0
  0
LINE
  8
0
  6
CONTINUOUS
 62
    15
 10
-73.512932
 20
-18.138407
 30
0.0
 11
-73.368118
 21
-18.127014
 31
0.0
  0
LINE
  8
0
  6
CONTINUOUS
 62
    15
 10
-73.368118
 20
-18.127014
 30
0.0
 11
-73.242058
 21
-18.170368
 31
0.0
  0
LINE
  8
0
  6
CONTINUOUS
 62
    15
 10
-73.242058
 20
-18.170368
 30
0.0
 11
-73.142456
 21
-18.270742
 31
0.0
  0
LINE
  8
0
  6
CONTINUOUS
 62
    15
 10
-73.142456
 20
-18.270742
 30
0.0
 11
-73.077034
 21
-18.430403
 31
0.0
  0
LINE
  8
0
  6
CONTINUOUS
 62
    15
 10
-73.077034
 20
-18.430403
 30
0.0
 11
-73.053513
 21
-18.651623
 31
0.0
  0
LINE
  8
0
  6
CONTINUOUS
 62
    15
 10
-74.393173
 20
-19.306484
 30
0.0
 11
-74.294487
 21
-19.129187
 31
0.0
  0
LINE
  8
0
  6
CONTINUOUS
 62
    15
 10
-74.294487
 20
-19.129187
 30
0.0
 11
-74.179268
 21
-18.988485
 31
0.0
  0
LINE
  8
0
  6
CONTINUOUS
 62
    15
 10
-74.179268
 20
-18.988485
 30
0.0
 11
-74.050804
 21
-18.885229
 31
0.0
  0
LINE
  8
0
  6
CONTINUOUS
 62
    15
 10
-74.050804
 20
-18.885229
 30
0.0
 11
-73.912437
 21
-18.820269
 31
0.0
  0
LINE
  8
0
  6
CONTINUOUS
 62
    15
 10
-73.912437
 20
-18.820269
 30
0.0
 11
-73.767441
 21
-18.794455
 31
0.0
  0
LINE
  8
0
  6
CONTINUOUS
 62
    15
 10
-73.767441
 20
-18.794455
 30
0.0
 11
-73.619148
 21
-18.80864
 31
0.0
  0
LINE
  8
0
  6
CONTINUOUS
 62
    15
 10
-73.619148
 20
-18.80864
 30
0.0
 11
-73.470848
 21
-18.863672
 31
0.0
  0
LINE
  8
0
  6
CONTINUOUS
 62
    15
 10
-73.470848
 20
-18.863672
 30
0.0
 11
-73.325859
 21
-18.960405
 31
0.0
  0
LINE
  8
0
  6
CONTINUOUS
 62
    15
 10
-73.325859
 20
-18.960405
 30
0.0
 11
-73.187485
 21
-19.099689
 31
0.0
  0
LINE
  8
0
  6
CONTINUOUS
 62
    15
 10
-78.536057
 20
-18.927038
 30
0.0
 11
-78.676636
 21
-18.699486
 31
0.0
  0
LINE
  8
0
  6
CONTINUOUS
 62
    15
 10
-78.676636
 20
-18.699486
 30
0.0
 11
-78.747749
 21
-18.49803
 31
0.0
  0
LINE
  8
0
  6
CONTINUOUS
 62
    15
 10
-78.747749
 20
-18.49803
 30
0.0
 11
-78.759331
 21
-18.320686
 31
0.0
  0
LINE
  8
0
  6
CONTINUOUS
 62
    15
 10
-78.759331
 20
-18.320686
 30
0.0
 11
-78.721291
 21
-18.165468
 31
0.0
  0
LINE
  8
0
  6
CONTINUOUS
 62
    15
 10
-78.721291
 20
-18.165468
 30
0.0
 11
-78.643562
 21
-18.030394
 31
0.0
  0
LINE
  8
0
  6
CONTINUOUS
 62
    15
 10
-78.643562
 20
-18.030394
 30
0.0
 11
-78.536057
 21
-17.913473
 31
0.0
  0
LINE
  8
0
  6
CONTINUOUS
 62
    15
 10
-78.536057
 20
-17.913473
 30
0.0
 11
-78.408714
 21
-17.812721
 31
0.0
  0
LINE
  8
0
  6
CONTINUOUS
 62
    15
 10
-78.408714
 20
-17.812721
 30
0.0
 11
-78.271439
 21
-17.726154
 31
0.0
  0
LINE
  8
0
  6
CONTINUOUS
 62
    15
 10
-78.271439
 20
-17.726154
 30
0.0
 11
-78.134171
 21
-17.651785
 31
0.0
  0
LINE
  8
0
  6
CONTINUOUS
 62
    15
 10
-78.134171
 20
-18.065382
 30
0.0
 11
-78.119469
 21
-17.868181
 31
0.0
  0
LINE
  8
0
  6
CONTINUOUS
 62
    15
 10
-78.119469
 20
-17.868181
 30
0.0
 11
-78.076096
 21
-17.692823
 31
0.0
  0
LINE
  8
0
  6
CONTINUOUS
 62
    15
 10
-78.076096
 20
-17.692823
 30
0.0
 11
-78.005165
 21
-17.543278
 31
0.0
  0
LINE
  8
0
  6
CONTINUOUS
 62
    15
 10
-78.005165
 20
-17.543278
 30
0.0
 11
-77.907761
 21
-17.423521
 31
0.0
  0
LINE
  8
0
  6
CONTINUOUS
 62
    15
 10
-77.907761
 20
-17.423521
 30
0.0
 11
-77.785004
 21
-17.337521
 31
0.0
  0
LINE
  8
0
  6
CONTINUOUS
 62
    15
 10
-77.785004
 20
-17.337521
 30
0.0
 11
-77.637985
 21
-17.289249
 31
0.0
  0
LINE
  8
0
  6
CONTINUOUS
 62
    15
 10
-77.637985
 20
-17.289249
 30
0.0
 11
-77.467812
 21
-17.282679
 31
0.0
  0
LINE
  8
0
  6
CONTINUOUS
 62
    15
 10
-77.467812
 20
-17.282679
 30
0.0
 11
-77.275597
 21
-17.321777
 31
0.0
  0
LINE
  8
0
  6
CONTINUOUS
 62
    15
 10
-77.275597
 20
-17.321777
 30
0.0
 11
-77.062424
 21
-17.410521
 31
0.0
  0
LINE
  8
0
  6
CONTINUOUS
 62
    15
 10
-77.196396
 20
-17.82411
 30
0.0
 11
-77.053795
 21
-17.616415
 31
0.0
  0
LINE
  8
0
  6
CONTINUOUS
 62
    15
 10
-77.053795
 20
-17.616415
 30
0.0
 11
-76.899071
 21
-17.454391
 31
0.0
  0
LINE
  8
0
  6
CONTINUOUS
 62
    15
 10
-76.899071
 20
-17.454391
 30
0.0
 11
-76.739929
 21
-17.340307
 31
0.0
  0
LINE
  8
0
  6
CONTINUOUS
 62
    15
 10
-76.739929
 20
-17.340307
 30
0.0
 11
-76.584099
 21
-17.276434
 31
0.0
  0
LINE
  8
0
  6
CONTINUOUS
 62
    15
 10
-76.584099
 20
-17.276434
 30
0.0
 11
-76.439285
 21
-17.265039
 31
0.0
  0
LINE
  8
0
  6
CONTINUOUS
 62
    15
 10
-76.439285
 20
-17.265039
 30
0.0
 11
-76.313225
 21
-17.308393
 31
0.0
  0
LINE
  8
0
  6
CONTINUOUS
 62
    15
 10
-76.313225
 20
-17.308393
 30
0.0
 11
-76.213623
 21
-17.408768
 31
0.0
  0
LINE
  8
0
  6
CONTINUOUS
 62
    15
 10
-76.213623
 20
-17.408768
 30
0.0
 11
-76.148201
 21
-17.56843
 31
0.0
  0
LINE
  8
0
  6
CONTINUOUS
 62
    15
 10
-76.148201
 20
-17.56843
 30
0.0
 11
-76.12468
 21
-17.789648
 31
0.0
  0
LINE
  8
0
  6
CONTINUOUS
 62
    15
 10
-77.46434
 20
-18.44451
 30
0.0
 11
-77.365654
 21
-18.267214
 31
0.0
  0
LINE
  8
0
  6
CONTINUOUS
 62
    15
 10
-77.365654
 20
-18.267214
 30
0.0
 11
-77.250435
 21
-18.126513
 31
0.0
  0
LINE
  8
0
  6
CONTINUOUS
 62
    15
 10
-77.250435
 20
-18.126513
 30
0.0
 11
-77.121971
 21
-18.023254
 31
0.0
  0
LINE
  8
0
  6
CONTINUOUS
 62
    15
 10
-77.121971
 20
-18.023254
 30
0.0
 11
-76.983604
 21
-17.958294
 31
0.0
  0
LINE
  8
0
  6
CONTINUOUS
 62
    15
 10
-76.983604
 20
-17.958294
 30
0.0
 11
-76.838608
 21
-17.932482
 31
0.0
  0
LINE
  8
0
  6
CONTINUOUS
 62
    15
 10
-76.838608
 20
-17.932482
 30
0.0
 11
-76.690315
 21
-17.946665
 31
0.0
  0
LINE
  8
0
  6
CONTINUOUS
 62
    15
 10
-76.690315
 20
-17.946665
 30
0.0
 11
-76.542015
 21
-18.001699
 31
0.0
  0
LINE
  8
0
  6
CONTINUOUS
 62
    15
 10
-76.542015
 20
-18.001699
 30
0.0
 11
-76.397026
 21
-18.098433
 31
0.0
  0
LINE
  8
0
  6
CONTINUOUS
 62
    15
 10
-76.397026
 20
-18.098433
 30
0.0
 11
-76.258652
 21
-18.237715
 31
0.0
  0
LINE
  8
0
  6
CONTINUOUS
 62
    15
 10
-81.13781
 20
-19.259974
 30
0.0
 11
-81.278389
 21
-19.032419
 31
0.0
  0
LINE
  8
0
  6
CONTINUOUS
 62
    15
 10
-81.278389
 20
-19.032419
 30
0.0
 11
-81.34951
 21
-18.830963
 31
0.0
  0
LINE
  8
0
  6
CONTINUOUS
 62
    15
 10
-81.34951
 20
-18.830963
 30
0.0
 11
-81.361092
 21
-18.65362
 31
0.0
  0
LINE
  8
0
  6
CONTINUOUS
 62
    15
 10
-81.361092
 20
-18.65362
 30
0.0
 11
-81.323051
 21
-18.498404
 31
0.0
  0
LINE
  8
0
  6
CONTINUOUS
 62
    15
 10
-81.323051
 20
-18.498404
 30
0.0
 11
-81.245316
 21
-18.363327
 31
0.0
  0
LINE
  8
0
  6
CONTINUOUS
 62
    15
 10
-81.245316
 20
-18.363327
 30
0.0
 11
-81.13781
 21
-18.246407
 31
0.0
  0
LINE
  8
0
  6
CONTINUOUS
 62
    15
 10
-81.13781
 20
-18.246407
 30
0.0
 11
-81.010468
 21
-18.145655
 31
0.0
  0
LINE
  8
0
  6
CONTINUOUS
 62
    15
 10
-81.010468
 20
-18.145655
 30
0.0
 11
-80.873192
 21
-18.059088
 31
0.0
  0
LINE
  8
0
  6
CONTINUOUS
 62
    15
 10
-80.873192
 20
-18.059088
 30
0.0
 11
-80.735924
 21
-17.98472
 31
0.0
  0
LINE
  8
0
  6
CONTINUOUS
 62
    15
 10
-80.735924
 20
-18.398317
 30
0.0
 11
-80.721222
 21
-18.201115
 31
0.0
  0
LINE
  8
0
  6
CONTINUOUS
 62
    15
 10
-80.721222
 20
-18.201115
 30
0.0
 11
-80.677849
 21
-18.025757
 31
0.0
  0
LINE
  8
0
  6
CONTINUOUS
 62
    15
 10
-80.677849
 20
-18.025757
 30
0.0
 11
-80.606918
 21
-17.876211
 31
0.0
  0
LINE
  8
0
  6
CONTINUOUS
 62
    15
 10
-80.606918
 20
-17.876211
 30
0.0
 11
-80.509514
 21
-17.756454
 31
0.0
  0
LINE
  8
0
  6
CONTINUOUS
 62
    15
 10
-80.509514
 20
-17.756454
 30
0.0
 11
-80.386757
 21
-17.670454
 31
0.0
  0
LINE
  8
0
  6
CONTINUOUS
 62
    15
 10
-80.386757
 20
-17.670454
 30
0.0
 11
-80.239738
 21
-17.622183
 31
0.0
  0
LINE
  8
0
  6
CONTINUOUS
 62
    15
 10
-80.239738
 20
-17.622183
 30
0.0
 11
-80.069572
 21
-17.615612
 31
0.0
  0
LINE
  8
0
  6
CONTINUOUS
 62
    15
 10
-80.069572
 20
-17.615612
 30
0.0
 11
-79.87735
 21
-17.654711
 31
0.0
  0
LINE
  8
0
  6
CONTINUOUS
 62
    15
 10
-79.87735
 20
-17.654711
 30
0.0
 11
-79.664177
 21
-17.743456
 31
0.0
  0
LINE
  8
0
  6
CONTINUOUS
 62
    15
 10
-79.798149
 20
-18.157045
 30
0.0
 11
-79.655556
 21
-17.94935
 31
0.0
  0
LINE
  8
0
  6
CONTINUOUS
 62
    15
 10
-79.655556
 20
-17.94935
 30
0.0
 11
-79.500824
 21
-17.787325
 31
0.0
  0
LINE
  8
0
  6
CONTINUOUS
 62
    15
 10
-79.500824
 20
-17.787325
 30
0.0
 11
-79.341682
 21
-17.673243
 31
0.0
  0
LINE
  8
0
  6
CONTINUOUS
 62
    15
 10
-79.341682
 20
-17.673243
 30
0.0
 11
-79.185852
 21
-17.609367
 31
0.0
  0
LINE
  8
0
  6
CONTINUOUS
 62
    15
 10
-79.185852
 20
-17.609367
 30
0.0
 11
-79.041039
 21
-17.597975
 31
0.0
  0
LINE
  8
0
  6
CONTINUOUS
 62
    15
 10
-79.041039
 20
-17.597975
 30
0.0
 11
-78.914978
 21
-17.641329
 31
0.0
  0
LINE
  8
0
  6
CONTINUOUS
 62
    15
 10
-78.914978
 20
-17.641329
 30
0.0
 11
-78.815376
 21
-17.741701
 31
0.0
  0
LINE
  8
0
  6
CONTINUOUS
 62
    15
 10
-78.815376
 20
-17.741701
 30
0.0
 11
-78.749962
 21
-17.901363
 31
0.0
  0
LINE
  8
0
  6
CONTINUOUS
 62
    15
 10
-78.749962
 20
-17.901363
 30
0.0
 11
-78.726433
 21
-18.122583
 31
0.0
  0
LINE
  8
0
  6
CONTINUOUS
 62
    15
 10
-82.691452
 20
-16.4793
 30
0.0
 11
-82.585976
 21
-16.6887
 31
0.0
  0
LINE
  8
0
  6
CONTINUOUS
 62
    15
 10
-82.585976
 20
-16.6887
 30
0.0
 11
-82.53231
 21
-16.88051
 31
0.0
  0
LINE
  8
0
  6
CONTINUOUS
 62
    15
 10
-82.53231
 20
-16.88051
 30
0.0
 11
-82.522758
 21
-17.055017
 31
0.0
  0
LINE
  8
0
  6
CONTINUOUS
 62
    15
 10
-82.522758
 20
-17.055017
 30
0.0
 11
-82.549591
 21
-17.212503
 31
0.0
  0
LINE
  8
0
  6
CONTINUOUS
 62
    15
 10
-82.549591
 20
-17.212503
 30
0.0
 11
-82.605087
 21
-17.353252
 31
0.0
  0
LINE
  8
0
  6
CONTINUOUS
 62
    15
 10
-82.605087
 20
-17.353252
 30
0.0
 11
-82.681534
 21
-17.477549
 31
0.0
  0
LINE
  8
0
  6
CONTINUOUS
 62
    15
 10
-82.681534
 20
-17.477549
 30
0.0
 11
-82.771217
 21
-17.585674
 31
0.0
  0
LINE
  8
0
  6
CONTINUOUS
 62
    15
 10
-82.771217
 20
-17.585674
 30
0.0
 11
-82.866409
 21
-17.677916
 31
0.0
  0
LINE
  8
0
  6
CONTINUOUS
 62
    15
 10
-82.866409
 20
-17.677916
 30
0.0
 11
-82.959396
 21
-17.754553
 31
0.0
  0
LINE
  8
0
  6
CONTINUOUS
 62
    15
 10
-82.825424
 20
-17.340963
 30
0.0
 11
-82.808884
 21
-17.645296
 31
0.0
  0
LINE
  8
0
  6
CONTINUOUS
 62
    15
 10
-82.808884
 20
-17.645296
 30
0.0
 11
-82.841957
 21
-17.89403
 31
0.0
  0
LINE
  8
0
  6
CONTINUOUS
 62
    15
 10
-82.841957
 20
-17.89403
 30
0.0
 11
-82.914726
 21
-18.090284
 31
0.0
  0
LINE
  8
0
  6
CONTINUOUS
 62
    15
 10
-82.914726
 20
-18.090284
 30
0.0
 11
-83.017273
 21
-18.237179
 31
0.0
  0
LINE
  8
0
  6
CONTINUOUS
 62
    15
 10
-83.017273
 20
-18.237179
 30
0.0
 11
-83.139664
 21
-18.337835
 31
0.0
  0
LINE
  8
0
  6
CONTINUOUS
 62
    15
 10
-83.139664
 20
-18.337835
 30
0.0
 11
-83.27198
 21
-18.395372
 31
0.0
  0
LINE
  8
0
  6
CONTINUOUS
 62
    15
 10
-83.27198
 20
-18.395372
 30
0.0
 11
-83.404289
 21
-18.412912
 31
0.0
  0
LINE
  8
0
  6
CONTINUOUS
 62
    15
 10
-83.404289
 20
-18.412912
 30
0.0
 11
-83.52668
 21
-18.393576
 31
0.0
  0
LINE
  8
0
  6
CONTINUOUS
 62
    15
 10
-83.52668
 20
-18.393576
 30
0.0
 11
-83.629227
 21
-18.340483
 31
0.0
  0
LINE
  8
0
  6
CONTINUOUS
 62
    15
 10
-84.834915
 20
-16.341436
 30
0.0
 11
-84.820213
 21
-16.144236
 31
0.0
  0
LINE
  8
0
  6
CONTINUOUS
 62
    15
 10
-84.820213
 20
-16.144236
 30
0.0
 11
-84.77684
 21
-15.968878
 31
0.0
  0
LINE
  8
0
  6
CONTINUOUS
 62
    15
 10
-84.77684
 20
-15.968878
 30
0.0
 11
-84.70591
 21
-15.819332
 31
0.0
  0
LINE
  8
0
  6
CONTINUOUS
 62
    15
 10
-84.70591
 20
-15.819332
 30
0.0
 11
-84.608505
 21
-15.699575
 31
0.0
  0
LINE
  8
0
  6
CONTINUOUS
 62
    15
 10
-84.608505
 20
-15.699575
 30
0.0
 11
-84.485748
 21
-15.613575
 31
0.0
  0
LINE
  8
0
  6
CONTINUOUS
 62
    15
 10
-84.485748
 20
-15.613575
 30
0.0
 11
-84.33873
 21
-15.565304
 31
0.0
  0
LINE
  8
0
  6
CONTINUOUS
 62
    15
 10
-84.33873
 20
-15.565304
 30
0.0
 11
-84.168556
 21
-15.558733
 31
0.0
  0
LINE
  8
0
  6
CONTINUOUS
 62
    15
 10
-84.168556
 20
-15.558733
 30
0.0
 11
-83.976341
 21
-15.597832
 31
0.0
  0
LINE
  8
0
  6
CONTINUOUS
 62
    15
 10
-83.976341
 20
-15.597832
 30
0.0
 11
-83.763168
 21
-15.686576
 31
0.0
  0
LINE
  8
0
  6
CONTINUOUS
 62
    15
 10
-83.897141
 20
-16.100164
 30
0.0
 11
-83.754539
 21
-15.89247
 31
0.0
  0
LINE
  8
0
  6
CONTINUOUS
 62
    15
 10
-83.754539
 20
-15.89247
 30
0.0
 11
-83.599815
 21
-15.730446
 31
0.0
  0
LINE
  8
0
  6
CONTINUOUS
 62
    15
 10
-83.599815
 20
-15.730446
 30
0.0
 11
-83.440674
 21
-15.616363
 31
0.0
  0
LINE
  8
0
  6
CONTINUOUS
 62
    15
 10
-83.440674
 20
-15.616363
 30
0.0
 11
-83.284843
 21
-15.552488
 31
0.0
  0
LINE
  8
0
  6
CONTINUOUS
 62
    15
 10
-83.284843
 20
-15.552488
 30
0.0
 11
-83.14003
 21
-15.541095
 31
0.0
  0
LINE
  8
0
  6
CONTINUOUS
 62
    15
 10
-83.14003
 20
-15.541095
 30
0.0
 11
-83.013969
 21
-15.584449
 31
0.0
  0
LINE
  8
0
  6
CONTINUOUS
 62
    15
 10
-83.013969
 20
-15.584449
 30
0.0
 11
-82.914368
 21
-15.684822
 31
0.0
  0
LINE
  8
0
  6
CONTINUOUS
 62
    15
 10
-82.914368
 20
-15.684822
 30
0.0
 11
-82.848946
 21
-15.844484
 31
0.0
  0
LINE
  8
0
  6
CONTINUOUS
 62
    15
 10
-82.848946
 20
-15.844484
 30
0.0
 11
-82.825424
 21
-16.065702
 31
0.0
  0
LINE
  8
0
  6
CONTINUOUS
 62
    15
 10
-84.700943
 20
-16.548231
 30
0.0
 11
-84.762138
 21
-16.787889
 31
0.0
  0
LINE
  8
0
  6
CONTINUOUS
 62
    15
 10
-84.762138
 20
-16.787889
 30
0.0
 11
-84.77372
 21
-17.000031
 31
0.0
  0
LINE
  8
0
  6
CONTINUOUS
 62
    15
 10
-84.77372
 20
-17.000031
 30
0.0
 11
-84.745598
 21
-17.182671
 31
0.0
  0
LINE
  8
0
  6
CONTINUOUS
 62
    15
 10
-84.745598
 20
-17.182671
 30
0.0
 11
-84.687714
 21
-17.333822
 31
0.0
  0
LINE
  8
0
  6
CONTINUOUS
 62
    15
 10
-84.687714
 20
-17.333822
 30
0.0
 11
-84.609978
 21
-17.451498
 31
0.0
  0
LINE
  8
0
  6
CONTINUOUS
 62
    15
 10
-84.609978
 20
-17.451498
 30
0.0
 11
-84.522324
 21
-17.533716
 31
0.0
  0
LINE
  8
0
  6
CONTINUOUS
 62
    15
 10
-84.522324
 20
-17.533716
 30
0.0
 11
-84.434669
 21
-17.578489
 31
0.0
  0
LINE
  8
0
  6
CONTINUOUS
 62
    15
 10
-84.434669
 20
-17.578489
 30
0.0
 11
-84.356941
 21
-17.583834
 31
0.0
  0
LINE
  8
0
  6
CONTINUOUS
 62
    15
 10
-84.356941
 20
-17.583834
 30
0.0
 11
-84.299057
 21
-17.547758
 31
0.0
  0
LINE
  8
0
  6
CONTINUOUS
 62
    15
 10
-84.165085
 20
-16.720564
 30
0.0
 11
-84.066399
 21
-16.543268
 31
0.0
  0
LINE
  8
0
  6
CONTINUOUS
 62
    15
 10
-84.066399
 20
-16.543268
 30
0.0
 11
-83.95118
 21
-16.402567
 31
0.0
  0
LINE
  8
0
  6
CONTINUOUS
 62
    15
 10
-83.95118
 20
-16.402567
 30
0.0
 11
-83.822716
 21
-16.299309
 31
0.0
  0
LINE
  8
0
  6
CONTINUOUS
 62
    15
 10
-83.822716
 20
-16.299309
 30
0.0
 11
-83.684349
 21
-16.234348
 31
0.0
  0
LINE
  8
0
  6
CONTINUOUS
 62
    15
 10
-83.684349
 20
-16.234348
 30
0.0
 11
-83.539352
 21
-16.208536
 31
0.0
  0
LINE
  8
0
  6
CONTINUOUS
 62
    15
 10
-83.539352
 20
-16.208536
 30
0.0
 11
-83.39106
 21
-16.222719
 31
0.0
  0
LINE
  8
0
  6
CONTINUOUS
 62
    15
 10
-83.39106
 20
-16.222719
 30
0.0
 11
-83.24276
 21
-16.277754
 31
0.0
  0
LINE
  8
0
  6
CONTINUOUS
 62
    15
 10
-83.24276
 20
-16.277754
 30
0.0
 11
-83.097771
 21
-16.374487
 31
0.0
  0
LINE
  8
0
  6
CONTINUOUS
 62
    15
 10
-83.097771
 20
-16.374487
 30
0.0
 11
-82.959396
 21
-16.513769
 31
0.0
  0
LINE
  8
0
  6
CONTINUOUS
 62
    15
 10
-83.495255
 20
-16.789495
 30
0.0
 11
-83.430199
 21
-16.95904
 31
0.0
  0
LINE
  8
0
  6
CONTINUOUS
 62
    15
 10
-83.430199
 20
-16.95904
 30
0.0
 11
-83.411453
 21
-17.122057
 31
0.0
  0
LINE
  8
0
  6
CONTINUOUS
 62
    15
 10
-83.411453
 20
-17.122057
 30
0.0
 11
-83.435707
 21
-17.277132
 31
0.0
  0
LINE
  8
0
  6
CONTINUOUS
 62
    15
 10
-83.435707
 20
-17.277132
 30
0.0
 11
-83.499664
 21
-17.422846
 31
0.0
  0
LINE
  8
0
  6
CONTINUOUS
 62
    15
 10
-83.499664
 20
-17.422846
 30
0.0
 11
-83.599998
 21
-17.557779
 31
0.0
  0
LINE
  8
0
  6
CONTINUOUS
 62
    15
 10
-83.599998
 20
-17.557779
 30
0.0
 11
-83.733421
 21
-17.680517
 31
0.0
  0
LINE
  8
0
  6
CONTINUOUS
 62
    15
 10
-83.733421
 20
-17.680517
 30
0.0
 11
-83.896606
 21
-17.789637
 31
0.0
  0
LINE
  8
0
  6
CONTINUOUS
 62
    15
 10
-83.896606
 20
-17.789637
 30
0.0
 11
-84.08625
 21
-17.883722
 31
0.0
  0
LINE
  8
0
  6
CONTINUOUS
 62
    15
 10
-84.08625
 20
-17.883722
 30
0.0
 11
-84.299057
 21
-17.961355
 31
0.0
  0
LINE
  8
0
  6
CONTINUOUS
 62
    15
 10
-88.643486
 20
-15.525517
 30
0.0
 11
-88.500893
 21
-15.317822
 31
0.0
  0
LINE
  8
0
  6
CONTINUOUS
 62
    15
 10
-88.500893
 20
-15.317822
 30
0.0
 11
-88.346153
 21
-15.155798
 31
0.0
  0
LINE
  8
0
  6
CONTINUOUS
 62
    15
 10
-88.346153
 20
-15.155798
 30
0.0
 11
-88.187019
 21
-15.041714
 31
0.0
  0
LINE
  8
0
  6
CONTINUOUS
 62
    15
 10
-88.187019
 20
-15.041714
 30
0.0
 11
-88.031181
 21
-14.977839
 31
0.0
  0
LINE
  8
0
  6
CONTINUOUS
 62
    15
 10
-88.031181
 20
-14.977839
 30
0.0
 11
-87.886375
 21
-14.966446
 31
0.0
  0
LINE
  8
0
  6
CONTINUOUS
 62
    15
 10
-87.886375
 20
-14.966446
 30
0.0
 11
-87.760323
 21
-15.0098
 31
0.0
  0
LINE
  8
0
  6
CONTINUOUS
 62
    15
 10
-87.760323
 20
-15.0098
 30
0.0
 11
-87.660713
 21
-15.110174
 31
0.0
  0
LINE
  8
0
  6
CONTINUOUS
 62
    15
 10
-87.660713
 20
-15.110174
 30
0.0
 11
-87.595291
 21
-15.269835
 31
0.0
  0
LINE
  8
0
  6
CONTINUOUS
 62
    15
 10
-87.595291
 20
-15.269835
 30
0.0
 11
-87.57177
 21
-15.491055
 31
0.0
  0
LINE
  8
0
  6
CONTINUOUS
 62
    15
 10
-92.652443
 20
-14.904815
 30
0.0
 11
-92.637741
 21
-14.707613
 31
0.0
  0
LINE
  8
0
  6
CONTINUOUS
 62
    15
 10
-92.637741
 20
-14.707613
 30
0.0
 11
-92.594368
 21
-14.532253
 31
0.0
  0
LINE
  8
0
  6
CONTINUOUS
 62
    15
 10
-92.594368
 20
-14.532253
 30
0.0
 11
-92.52343
 21
-14.38271
 31
0.0
  0
LINE
  8
0
  6
CONTINUOUS
 62
    15
 10
-92.52343
 20
-14.38271
 30
0.0
 11
-92.426033
 21
-14.262953
 31
0.0
  0
LINE
  8
0
  6
CONTINUOUS
 62
    15
 10
-92.426033
 20
-14.262953
 30
0.0
 11
-92.303268
 21
-14.176952
 31
0.0
  0
LINE
  8
0
  6
CONTINUOUS
 62
    15
 10
-92.303268
 20
-14.176952
 30
0.0
 11
-92.156258
 21
-14.128681
 31
0.0
  0
LINE
  8
0
  6
CONTINUOUS
 62
    15
 10
-92.156258
 20
-14.128681
 30
0.0
 11
-91.986092
 21
-14.12211
 31
0.0
  0
LINE
  8
0
  6
CONTINUOUS
 62
    15
 10
-91.986092
 20
-14.12211
 30
0.0
 11
-91.793861
 21
-14.161209
 31
0.0
  0
LINE
  8
0
  6
CONTINUOUS
 62
    15
 10
-91.793861
 20
-14.161209
 30
0.0
 11
-91.580696
 21
-14.249953
 31
0.0
  0
LINE
  8
0
  6
CONTINUOUS
 62
    15
 10
-91.714668
 20
-14.663543
 30
0.0
 11
-91.572067
 21
-14.455848
 31
0.0
  0
LINE
  8
0
  6
CONTINUOUS
 62
    15
 10
-91.572067
 20
-14.455848
 30
0.0
 11
-91.417336
 21
-14.293823
 31
0.0
  0
LINE
  8
0
  6
CONTINUOUS
 62
    15
 10
-91.417336
 20
-14.293823
 30
0.0
 11
-91.258194
 21
-14.17974
 31
0.0
  0
LINE
  8
0
  6
CONTINUOUS
 62
    15
 10
-91.258194
 20
-14.17974
 30
0.0
 11
-91.102364
 21
-14.115866
 31
0.0
  0
LINE
  8
0
  6
CONTINUOUS
 62
    15
 10
-91.102364
 20
-14.115866
 30
0.0
 11
-90.957558
 21
-14.104472
 31
0.0
  0
LINE
  8
0
  6
CONTINUOUS
 62
    15
 10
-90.957558
 20
-14.104472
 30
0.0
 11
-90.831497
 21
-14.147826
 31
0.0
  0
LINE
  8
0
  6
CONTINUOUS
 62
    15
 10
-90.831497
 20
-14.147826
 30
0.0
 11
-90.731888
 21
-14.248199
 31
0.0
  0
LINE
  8
0
  6
CONTINUOUS
 62
    15
 10
-90.731888
 20
-14.248199
 30
0.0
 11
-90.666466
 21
-14.407862
 31
0.0
  0
LINE
  8
0
  6
CONTINUOUS
 62
    15
 10
-90.666466
 20
-14.407862
 30
0.0
 11
-90.642952
 21
-14.629081
 31
0.0
  0
LINE
  8
0
  6
CONTINUOUS
 62
    15
 10
-91.982613
 20
-15.283942
 30
0.0
 11
-91.883926
 21
-15.106646
 31
0.0
  0
LINE
  8
0
  6
CONTINUOUS
 62
    15
 10
-91.883926
 20
-15.106646
 30
0.0
 11
-91.7687
 21
-14.965944
 31
0.0
  0
LINE
  8
0
  6
CONTINUOUS
 62
    15
 10
-91.7687
 20
-14.965944
 30
0.0
 11
-91.640244
 21
-14.862686
 31
0.0
  0
LINE
  8
0
  6
CONTINUOUS
 62
    15
 10
-91.640244
 20
-14.862686
 30
0.0
 11
-91.501869
 21
-14.797726
 31
0.0
  0
LINE
  8
0
  6
CONTINUOUS
 62
    15
 10
-91.501869
 20
-14.797726
 30
0.0
 11
-91.35688
 21
-14.771914
 31
0.0
  0
LINE
  8
0
  6
CONTINUOUS
 62
    15
 10
-91.35688
 20
-14.771914
 30
0.0
 11
-91.20858
 21
-14.786098
 31
0.0
  0
LINE
  8
0
  6
CONTINUOUS
 62
    15
 10
-91.20858
 20
-14.786098
 30
0.0
 11
-91.060287
 21
-14.841131
 31
0.0
  0
LINE
  8
0
  6
CONTINUOUS
 62
    15
 10
-91.060287
 20
-14.841131
 30
0.0
 11
-90.915298
 21
-14.937864
 31
0.0
  0
LINE
  8
0
  6
CONTINUOUS
 62
    15
 10
-90.915298
 20
-14.937864
 30
0.0
 11
-90.776924
 21
-15.077147
 31
0.0
  0
LINE
  8
0
  6
CONTINUOUS
 62
    15
 10
-104.937141
 20
-14.617491
 30
0.0
 11
-104.92244
 21
-14.420288
 31
0.0
  0
LINE
  8
0
  6
CONTINUOUS
 62
    15
 10
-104.92244
 20
-14.420288
 30
0.0
 11
-104.879066
 21
-14.24493
 31
0.0
  0
LINE
  8
0
  6
CONTINUOUS
 62
    15
 10
-104.879066
 20
-14.24493
 30
0.0
 11
-104.808128
 21
-14.095386
 31
0.0
  0
LINE
  8
0
  6
CONTINUOUS
 62
    15
 10
-104.808128
 20
-14.095386
 30
0.0
 11
-104.710732
 21
-13.975628
 31
0.0
  0
LINE
  8
0
  6
CONTINUOUS
 62
    15
 10
-104.710732
 20
-13.975628
 30
0.0
 11
-104.587967
 21
-13.889628
 31
0.0
  0
LINE
  8
0
  6
CONTINUOUS
 62
    15
 10
-104.587967
 20
-13.889628
 30
0.0
 11
-104.440956
 21
-13.841357
 31
0.0
  0
LINE
  8
0
  6
CONTINUOUS
 62
    15
 10
-104.440956
 20
-13.841357
 30
0.0
 11
-104.27079
 21
-13.834785
 31
0.0
  0
LINE
  8
0
  6
CONTINUOUS
 62
    15
 10
-104.27079
 20
-13.834785
 30
0.0
 11
-104.07856
 21
-13.873885
 31
0.0
  0
LINE
  8
0
  6
CONTINUOUS
 62
    15
 10
-104.07856
 20
-13.873885
 30
0.0
 11
-103.865395
 21
-13.962629
 31
0.0
  0
LINE
  8
0
  6
CONTINUOUS
 62
    15
 10
-103.999367
 20
-14.376219
 30
0.0
 11
-103.856766
 21
-14.168524
 31
0.0
  0
LINE
  8
0
  6
CONTINUOUS
 62
    15
 10
-103.856766
 20
-14.168524
 30
0.0
 11
-103.702034
 21
-14.006499
 31
0.0
  0
LINE
  8
0
  6
CONTINUOUS
 62
    15
 10
-103.702034
 20
-14.006499
 30
0.0
 11
-103.542892
 21
-13.892416
 31
0.0
  0
LINE
  8
0
  6
CONTINUOUS
 62
    15
 10
-103.542892
 20
-13.892416
 30
0.0
 11
-103.387062
 21
-13.828541
 31
0.0
  0
LINE
  8
0
  6
CONTINUOUS
 62
    15
 10
-103.387062
 20
-13.828541
 30
0.0
 11
-103.242256
 21
-13.817148
 31
0.0
  0
LINE
  8
0
  6
CONTINUOUS
 62
    15
 10
-103.242256
 20
-13.817148
 30
0.0
 11
-103.116196
 21
-13.860502
 31
0.0
  0
LINE
  8
0
  6
CONTINUOUS
 62
    15
 10
-103.116196
 20
-13.860502
 30
0.0
 11
-103.016586
 21
-13.960876
 31
0.0
  0
LINE
  8
0
  6
CONTINUOUS
 62
    15
 10
-103.016586
 20
-13.960876
 30
0.0
 11
-102.951164
 21
-14.120537
 31
0.0
  0
LINE
  8
0
  6
CONTINUOUS
 62
    15
 10
-102.951164
 20
-14.120537
 30
0.0
 11
-102.92765
 21
-14.341757
 31
0.0
  0
LINE
  8
0
  6
CONTINUOUS
 62
    15
 10
-107.940765
 20
-15.81208
 30
0.0
 11
-108.081352
 21
-15.584528
 31
0.0
  0
LINE
  8
0
  6
CONTINUOUS
 62
    15
 10
-108.081352
 20
-15.584528
 30
0.0
 11
-108.152466
 21
-15.383071
 31
0.0
  0
LINE
  8
0
  6
CONTINUOUS
 62
    15
 10
-108.152466
 20
-15.383071
 30
0.0
 11
-108.164047
 21
-15.205729
 31
0.0
  0
LINE
  8
0
  6
CONTINUOUS
 62
    15
 10
-108.164047
 20
-15.205729
 30
0.0
 11
-108.125999
 21
-15.05051
 31
0.0
  0
LINE
  8
0
  6
CONTINUOUS
 62
    15
 10
-108.125999
 20
-15.05051
 30
0.0
 11
-108.048271
 21
-14.915435
 31
0.0
  0
LINE
  8
0
  6
CONTINUOUS
 62
    15
 10
-108.048271
 20
-14.915435
 30
0.0
 11
-107.940765
 21
-14.798514
 31
0.0
  0
LINE
  8
0
  6
CONTINUOUS
 62
    15
 10
-107.940765
 20
-14.798514
 30
0.0
 11
-107.813416
 21
-14.697763
 31
0.0
  0
LINE
  8
0
  6
CONTINUOUS
 62
    15
 10
-107.813416
 20
-14.697763
 30
0.0
 11
-107.676147
 21
-14.611197
 31
0.0
  0
LINE
  8
0
  6
CONTINUOUS
 62
    15
 10
-107.676147
 20
-14.611197
 30
0.0
 11
-107.538879
 21
-14.536827
 31
0.0
  0
LINE
  8
0
  6
CONTINUOUS
 62
    15
 10
-107.538879
 20
-14.950424
 30
0.0
 11
-107.524185
 21
-14.753222
 31
0.0
  0
LINE
  8
0
  6
CONTINUOUS
 62
    15
 10
-107.524185
 20
-14.753222
 30
0.0
 11
-107.480804
 21
-14.577865
 31
0.0
  0
LINE
  8
0
  6
CONTINUOUS
 62
    15
 10
-107.480804
 20
-14.577865
 30
0.0
 11
-107.409874
 21
-14.42832
 31
0.0
  0
LINE
  8
0
  6
CONTINUOUS
 62
    15
 10
-107.409874
 20
-14.42832
 30
0.0
 11
-107.312469
 21
-14.308562
 31
0.0
  0
LINE
  8
0
  6
CONTINUOUS
 62
    15
 10
-107.312469
 20
-14.308562
 30
0.0
 11
-107.189713
 21
-14.222563
 31
0.0
  0
LINE
  8
0
  6
CONTINUOUS
 62
    15
 10
-107.189713
 20
-14.222563
 30
0.0
 11
-107.042694
 21
-14.174292
 31
0.0
  0
LINE
  8
0
  6
CONTINUOUS
 62
    15
 10
-107.042694
 20
-14.174292
 30
0.0
 11
-106.872528
 21
-14.16772
 31
0.0
  0
LINE
  8
0
  6
CONTINUOUS
 62
    15
 10
-106.872528
 20
-14.16772
 30
0.0
 11
-106.680298
 21
-14.20682
 31
0.0
  0
LINE
  8
0
  6
CONTINUOUS
 62
    15
 10
-106.680298
 20
-14.20682
 30
0.0
 11
-106.46714
 21
-14.295563
 31
0.0
  0
LINE
  8
0
  6
CONTINUOUS
 62
    15
 10
-106.601112
 20
-14.709152
 30
0.0
 11
-106.458511
 21
-14.501457
 31
0.0
  0
LINE
  8
0
  6
CONTINUOUS
 62
    15
 10
-106.458511
 20
-14.501457
 30
0.0
 11
-106.30378
 21
-14.339434
 31
0.0
  0
LINE
  8
0
  6
CONTINUOUS
 62
    15
 10
-106.30378
 20
-14.339434
 30
0.0
 11
-106.144638
 21
-14.225349
 31
0.0
  0
LINE
  8
0
  6
CONTINUOUS
 62
    15
 10
-106.144638
 20
-14.225349
 30
0.0
 11
-105.988808
 21
-14.161475
 31
0.0
  0
LINE
  8
0
  6
CONTINUOUS
 62
    15
 10
-105.988808
 20
-14.161475
 30
0.0
 11
-105.844002
 21
-14.150082
 31
0.0
  0
LINE
  8
0
  6
CONTINUOUS
 62
    15
 10
-105.844002
 20
-14.150082
 30
0.0
 11
-105.717941
 21
-14.193436
 31
0.0
  0
LINE
  8
0
  6
CONTINUOUS
 62
    15
 10
-105.717941
 20
-14.193436
 30
0.0
 11
-105.618332
 21
-14.29381
 31
0.0
  0
LINE
  8
0
  6
CONTINUOUS
 62
    15
 10
-105.618332
 20
-14.29381
 30
0.0
 11
-105.55291
 21
-14.453471
 31
0.0
  0
LINE
  8
0
  6
CONTINUOUS
 62
    15
 10
-105.55291
 20
-14.453471
 30
0.0
 11
-105.529396
 21
-14.67469
 31
0.0
  0
LINE
  8
0
  6
CONTINUOUS
 62
    15
 10
-98.359077
 20
-16.628447
 30
0.0
 11
-98.499657
 21
-16.400894
 31
0.0
  0
LINE
  8
0
  6
CONTINUOUS
 62
    15
 10
-98.499657
 20
-16.400894
 30
0.0
 11
-98.570778
 21
-16.199438
 31
0.0
  0
LINE
  8
0
  6
CONTINUOUS
 62
    15
 10
-98.570778
 20
-16.199438
 30
0.0
 11
-98.582352
 21
-16.022095
 31
0.0
  0
LINE
  8
0
  6
CONTINUOUS
 62
    15
 10
-98.582352
 20
-16.022095
 30
0.0
 11
-98.544304
 21
-15.866878
 31
0.0
  0
LINE
  8
0
  6
CONTINUOUS
 62
    15
 10
-98.544304
 20
-15.866878
 30
0.0
 11
-98.466576
 21
-15.731802
 31
0.0
  0
LINE
  8
0
  6
CONTINUOUS
 62
    15
 10
-98.466576
 20
-15.731802
 30
0.0
 11
-98.359077
 21
-15.614882
 31
0.0
  0
LINE
  8
0
  6
CONTINUOUS
 62
    15
 10
-98.359077
 20
-15.614882
 30
0.0
 11
-98.231728
 21
-15.51413
 31
0.0
  0
LINE
  8
0
  6
CONTINUOUS
 62
    15
 10
-98.231728
 20
-15.51413
 30
0.0
 11
-98.09446
 21
-15.427563
 31
0.0
  0
LINE
  8
0
  6
CONTINUOUS
 62
    15
 10
-98.09446
 20
-15.427563
 30
0.0
 11
-97.957191
 21
-15.353194
 31
0.0
  0
LINE
  8
0
  6
CONTINUOUS
 62
    15
 10
-101.709435
 20
-15.191824
 30
0.0
 11
-101.850021
 21
-14.964271
 31
0.0
  0
LINE
  8
0
  6
CONTINUOUS
 62
    15
 10
-101.850021
 20
-14.964271
 30
0.0
 11
-101.921135
 21
-14.762814
 31
0.0
  0
LINE
  8
0
  6
CONTINUOUS
 62
    15
 10
-101.921135
 20
-14.762814
 30
0.0
 11
-101.932716
 21
-14.585471
 31
0.0
  0
LINE
  8
0
  6
CONTINUOUS
 62
    15
 10
-101.932716
 20
-14.585471
 30
0.0
 11
-101.894669
 21
-14.430254
 31
0.0
  0
LINE
  8
0
  6
CONTINUOUS
 62
    15
 10
-101.894669
 20
-14.430254
 30
0.0
 11
-101.81694
 21
-14.295177
 31
0.0
  0
LINE
  8
0
  6
CONTINUOUS
 62
    15
 10
-101.81694
 20
-14.295177
 30
0.0
 11
-101.709435
 21
-14.178257
 31
0.0
  0
LINE
  8
0
  6
CONTINUOUS
 62
    15
 10
-101.709435
 20
-14.178257
 30
0.0
 11
-101.582085
 21
-14.077506
 31
0.0
  0
LINE
  8
0
  6
CONTINUOUS
 62
    15
 10
-101.582085
 20
-14.077506
 30
0.0
 11
-101.444817
 21
-13.990939
 31
0.0
  0
LINE
  8
0
  6
CONTINUOUS
 62
    15
 10
-101.444817
 20
-13.990939
 30
0.0
 11
-101.307549
 21
-13.916571
 31
0.0
  0
LINE
  8
0
  6
CONTINUOUS
 62
    15
 10
-101.307549
 20
-14.330168
 30
0.0
 11
-101.292854
 21
-14.132965
 31
0.0
  0
LINE
  8
0
  6
CONTINUOUS
 62
    15
 10
-101.292854
 20
-14.132965
 30
0.0
 11
-101.249474
 21
-13.957607
 31
0.0
  0
LINE
  8
0
  6
CONTINUOUS
 62
    15
 10
-101.249474
 20
-13.957607
 30
0.0
 11
-101.178543
 21
-13.808063
 31
0.0
  0
LINE
  8
0
  6
CONTINUOUS
 62
    15
 10
-101.178543
 20
-13.808063
 30
0.0
 11
-101.081139
 21
-13.688305
 31
0.0
  0
LINE
  8
0
  6
CONTINUOUS
 62
    15
 10
-101.081139
 20
-13.688305
 30
0.0
 11
-100.958382
 21
-13.602305
 31
0.0
  0
LINE
  8
0
  6
CONTINUOUS
 62
    15
 10
-100.958382
 20
-13.602305
 30
0.0
 11
-100.811363
 21
-13.554034
 31
0.0
  0
LINE
  8
0
  6
CONTINUOUS
 62
    15
 10
-100.811363
 20
-13.554034
 30
0.0
 11
-100.641197
 21
-13.547462
 31
0.0
  0
LINE
  8
0
  6
CONTINUOUS
 62
    15
 10
-100.641197
 20
-13.547462
 30
0.0
 11
-100.448967
 21
-13.586562
 31
0.0
  0
LINE
  8
0
  6
CONTINUOUS
 62
    15
 10
-100.448967
 20
-13.586562
 30
0.0
 11
-100.235802
 21
-13.675306
 31
0.0
  0
LINE
  8
0
  6
CONTINUOUS
 62
    15
 10
-100.369774
 20
-14.088896
 30
0.0
 11
-100.22718
 21
-13.881201
 31
0.0
  0
LINE
  8
0
  6
CONTINUOUS
 62
    15
 10
-100.22718
 20
-13.881201
 30
0.0
 11
-100.072441
 21
-13.719176
 31
0.0
  0
LINE
  8
0
  6
CONTINUOUS
 62
    15
 10
-100.072441
 20
-13.719176
 30
0.0
 11
-99.913307
 21
-13.605093
 31
0.0
  0
LINE
  8
0
  6
CONTINUOUS
 62
    15
 10
-99.913307
 20
-13.605093
 30
0.0
 11
-99.757469
 21
-13.541218
 31
0.0
  0
LINE
  8
0
  6
CONTINUOUS
 62
    15
 10
-99.757469
 20
-13.541218
 30
0.0
 11
-99.612663
 21
-13.529825
 31
0.0
  0
LINE
  8
0
  6
CONTINUOUS
 62
    15
 10
-99.612663
 20
-13.529825
 30
0.0
 11
-99.48661
 21
-13.573179
 31
0.0
  0
LINE
  8
0
  6
CONTINUOUS
 62
    15
 10
-99.48661
 20
-13.573179
 30
0.0
 11
-99.387001
 21
-13.673553
 31
0.0
  0
LINE
  8
0
  6
CONTINUOUS
 62
    15
 10
-99.387001
 20
-13.673553
 30
0.0
 11
-99.321579
 21
-13.833214
 31
0.0
  0
LINE
  8
0
  6
CONTINUOUS
 62
    15
 10
-99.321579
 20
-13.833214
 30
0.0
 11
-99.298058
 21
-14.054434
 31
0.0
  0
LINE
  8
0
  6
CONTINUOUS
 62
    15
 10
-100.637718
 20
-14.709295
 30
0.0
 11
-100.53904
 21
-14.531998
 31
0.0
  0
LINE
  8
0
  6
CONTINUOUS
 62
    15
 10
-100.53904
 20
-14.531998
 30
0.0
 11
-100.423813
 21
-14.391296
 31
0.0
  0
LINE
  8
0
  6
CONTINUOUS
 62
    15
 10
-100.423813
 20
-14.391296
 30
0.0
 11
-100.295357
 21
-14.288039
 31
0.0
  0
LINE
  8
0
  6
CONTINUOUS
 62
    15
 10
-100.295357
 20
-14.288039
 30
0.0
 11
-100.156975
 21
-14.223079
 31
0.0
  0
LINE
  8
0
  6
CONTINUOUS
 62
    15
 10
-100.156975
 20
-14.223079
 30
0.0
 11
-100.011986
 21
-14.197266
 31
0.0
  0
LINE
  8
0
  6
CONTINUOUS
 62
    15
 10
-100.011986
 20
-14.197266
 30
0.0
 11
-99.863693
 21
-14.211451
 31
0.0
  0
LINE
  8
0
  6
CONTINUOUS
 62
    15
 10
-99.863693
 20
-14.211451
 30
0.0
 11
-99.715401
 21
-14.266483
 31
0.0
  0
LINE
  8
0
  6
CONTINUOUS
 62
    15
 10
-99.715401
 20
-14.266483
 30
0.0
 11
-99.570412
 21
-14.363216
 31
0.0
  0
LINE
  8
0
  6
CONTINUOUS
 62
    15
 10
-99.570412
 20
-14.363216
 30
0.0
 11
-99.43203
 21
-14.502501
 31
0.0
  0
LINE
  8
0
  6
CONTINUOUS
 62
    15
 10
-109.583282
 20
-16.387489
 30
0.0
 11
-109.440689
 21
-16.179794
 31
0.0
  0
LINE
  8
0
  6
CONTINUOUS
 62
    15
 10
-109.440689
 20
-16.179794
 30
0.0
 11
-109.28595
 21
-16.017771
 31
0.0
  0
LINE
  8
0
  6
CONTINUOUS
 62
    15
 10
-109.28595
 20
-16.017771
 30
0.0
 11
-109.126816
 21
-15.903687
 31
0.0
  0
LINE
  8
0
  6
CONTINUOUS
 62
    15
 10
-109.126816
 20
-15.903687
 30
0.0
 11
-108.970978
 21
-15.839812
 31
0.0
  0
LINE
  8
0
  6
CONTINUOUS
 62
    15
 10
-108.970978
 20
-15.839812
 30
0.0
 11
-108.826172
 21
-15.828419
 31
0.0
  0
LINE
  8
0
  6
CONTINUOUS
 62
    15
 10
-108.826172
 20
-15.828419
 30
0.0
 11
-108.700119
 21
-15.871773
 31
0.0
  0
LINE
  8
0
  6
CONTINUOUS
 62
    15
 10
-108.700119
 20
-15.871773
 30
0.0
 11
-108.60051
 21
-15.972147
 31
0.0
  0
LINE
  8
0
  6
CONTINUOUS
 62
    15
 10
-108.60051
 20
-15.972147
 30
0.0
 11
-108.535088
 21
-16.131807
 31
0.0
  0
LINE
  8
0
  6
CONTINUOUS
 62
    15
 10
-108.535088
 20
-16.131807
 30
0.0
 11
-108.511566
 21
-16.353027
 31
0.0
  0
LINE
  8
0
  6
CONTINUOUS
 62
    15
 10
-113.871422
 20
-15.192139
 30
0.0
 11
-113.85672
 21
-14.994937
 31
0.0
  0
LINE
  8
0
  6
CONTINUOUS
 62
    15
 10
-113.85672
 20
-14.994937
 30
0.0
 11
-113.813347
 21
-14.819578
 31
0.0
  0
LINE
  8
0
  6
CONTINUOUS
 62
    15
 10
-113.813347
 20
-14.819578
 30
0.0
 11
-113.742416
 21
-14.670034
 31
0.0
  0
LINE
  8
0
  6
CONTINUOUS
 62
    15
 10
-113.742416
 20
-14.670034
 30
0.0
 11
-113.645012
 21
-14.550277
 31
0.0
  0
LINE
  8
0
  6
CONTINUOUS
 62
    15
 10
-113.645012
 20
-14.550277
 30
0.0
 11
-113.522247
 21
-14.464277
 31
0.0
  0
LINE
  8
0
  6
CONTINUOUS
 62
    15
 10
-113.522247
 20
-14.464277
 30
0.0
 11
-113.375237
 21
-14.416006
 31
0.0
  0
LINE
  8
0
  6
CONTINUOUS
 62
    15
 10
-113.375237
 20
-14.416006
 30
0.0
 11
-113.20507
 21
-14.409434
 31
0.0
  0
LINE
  8
0
  6
CONTINUOUS
 62
    15
 10
-113.20507
 20
-14.409434
 30
0.0
 11
-113.01284
 21
-14.448534
 31
0.0
  0
LINE
  8
0
  6
CONTINUOUS
 62
    15
 10
-113.01284
 20
-14.448534
 30
0.0
 11
-112.799675
 21
-14.537277
 31
0.0
  0
LINE
  8
0
  6
CONTINUOUS
 62
    15
 10
-112.933647
 20
-14.950867
 30
0.0
 11
-112.791046
 21
-14.743172
 31
0.0
  0
LINE
  8
0
  6
CONTINUOUS
 62
    15
 10
-112.791046
 20
-14.743172
 30
0.0
 11
-112.636314
 21
-14.581148
 31
0.0
  0
LINE
  8
0
  6
CONTINUOUS
 62
    15
 10
-112.636314
 20
-14.581148
 30
0.0
 11
-112.477173
 21
-14.467064
 31
0.0
  0
LINE
  8
0
  6
CONTINUOUS
 62
    15
 10
-112.477173
 20
-14.467064
 30
0.0
 11
-112.321342
 21
-14.40319
 31
0.0
  0
LINE
  8
0
  6
CONTINUOUS
 62
    15
 10
-112.321342
 20
-14.40319
 30
0.0
 11
-112.176537
 21
-14.391796
 31
0.0
  0
LINE
  8
0
  6
CONTINUOUS
 62
    15
 10
-112.176537
 20
-14.391796
 30
0.0
 11
-112.050476
 21
-14.43515
 31
0.0
  0
LINE
  8
0
  6
CONTINUOUS
 62
    15
 10
-112.050476
 20
-14.43515
 30
0.0
 11
-111.950867
 21
-14.535524
 31
0.0
  0
LINE
  8
0
  6
CONTINUOUS
 62
    15
 10
-111.950867
 20
-14.535524
 30
0.0
 11
-111.885452
 21
-14.695186
 31
0.0
  0
LINE
  8
0
  6
CONTINUOUS
 62
    15
 10
-111.885452
 20
-14.695186
 30
0.0
 11
-111.861931
 21
-14.916405
 31
0.0
  0
LINE
  8
0
  6
CONTINUOUS
 62
    15
 10
-117.344498
 20
-15.191821
 30
0.0
 11
-117.485077
 21
-14.964268
 31
0.0
  0
LINE
  8
0
  6
CONTINUOUS
 62
    15
 10
-117.485077
 20
-14.964268
 30
0.0
 11
-117.556198
 21
-14.762812
 31
0.0
  0
LINE
  8
0
  6
CONTINUOUS
 62
    15
 10
-117.556198
 20
-14.762812
 30
0.0
 11
-117.567772
 21
-14.585468
 31
0.0
  0
LINE
  8
0
  6
CONTINUOUS
 62
    15
 10
-117.567772
 20
-14.585468
 30
0.0
 11
-117.529724
 21
-14.430251
 31
0.0
  0
LINE
  8
0
  6
CONTINUOUS
 62
    15
 10
-117.529724
 20
-14.430251
 30
0.0
 11
-117.451996
 21
-14.295176
 31
0.0
  0
LINE
  8
0
  6
CONTINUOUS
 62
    15
 10
-117.451996
 20
-14.295176
 30
0.0
 11
-117.344498
 21
-14.178255
 31
0.0
  0
LINE
  8
0
  6
CONTINUOUS
 62
    15
 10
-117.344498
 20
-14.178255
 30
0.0
 11
-117.217148
 21
-14.077503
 31
0.0
  0
LINE
  8
0
  6
CONTINUOUS
 62
    15
 10
-117.217148
 20
-14.077503
 30
0.0
 11
-117.07988
 21
-13.990936
 31
0.0
  0
LINE
  8
0
  6
CONTINUOUS
 62
    15
 10
-117.07988
 20
-13.990936
 30
0.0
 11
-116.942612
 21
-13.916568
 31
0.0
  0
LINE
  8
0
  6
CONTINUOUS
 62
    15
 10
-116.942612
 20
-14.330165
 30
0.0
 11
-116.92791
 21
-14.132963
 31
0.0
  0
LINE
  8
0
  6
CONTINUOUS
 62
    15
 10
-116.92791
 20
-14.132963
 30
0.0
 11
-116.884537
 21
-13.957603
 31
0.0
  0
LINE
  8
0
  6
CONTINUOUS
 62
    15
 10
-116.884537
 20
-13.957603
 30
0.0
 11
-116.813599
 21
-13.80806
 31
0.0
  0
LINE
  8
0
  6
CONTINUOUS
 62
    15
 10
-116.813599
 20
-13.80806
 30
0.0
 11
-116.716202
 21
-13.688303
 31
0.0
  0
LINE
  8
0
  6
CONTINUOUS
 62
    15
 10
-116.716202
 20
-13.688303
 30
0.0
 11
-116.593437
 21
-13.602303
 31
0.0
  0
LINE
  8
0
  6
CONTINUOUS
 62
    15
 10
-116.593437
 20
-13.602303
 30
0.0
 11
-116.446426
 21
-13.554031
 31
0.0
  0
LINE
  8
0
  6
CONTINUOUS
 62
    15
 10
-116.446426
 20
-13.554031
 30
0.0
 11
-116.27626
 21
-13.547461
 31
0.0
  0
LINE
  8
0
  6
CONTINUOUS
 62
    15
 10
-116.27626
 20
-13.547461
 30
0.0
 11
-116.08403
 21
-13.586559
 31
0.0
  0
LINE
  8
0
  6
CONTINUOUS
 62
    15
 10
-116.08403
 20
-13.586559
 30
0.0
 11
-115.870865
 21
-13.675303
 31
0.0
  0
LINE
  8
0
  6
CONTINUOUS
 62
    15
 10
-116.004837
 20
-14.088893
 30
0.0
 11
-115.862236
 21
-13.881198
 31
0.0
  0
LINE
  8
0
  6
CONTINUOUS
 62
    15
 10
-115.862236
 20
-13.881198
 30
0.0
 11
-115.707504
 21
-13.719173
 31
0.0
  0
LINE
  8
0
  6
CONTINUOUS
 62
    15
 10
-115.707504
 20
-13.719173
 30
0.0
 11
-115.548363
 21
-13.60509
 31
0.0
  0
LINE
  8
0
  6
CONTINUOUS
 62
    15
 10
-115.548363
 20
-13.60509
 30
0.0
 11
-115.392532
 21
-13.541216
 31
0.0
  0
LINE
  8
0
  6
CONTINUOUS
 62
    15
 10
-115.392532
 20
-13.541216
 30
0.0
 11
-115.247726
 21
-13.529822
 31
0.0
  0
LINE
  8
0
  6
CONTINUOUS
 62
    15
 10
-115.247726
 20
-13.529822
 30
0.0
 11
-115.121666
 21
-13.573176
 31
0.0
  0
LINE
  8
0
  6
CONTINUOUS
 62
    15
 10
-115.121666
 20
-13.573176
 30
0.0
 11
-115.022057
 21
-13.67355
 31
0.0
  0
LINE
  8
0
  6
CONTINUOUS
 62
    15
 10
-115.022057
 20
-13.67355
 30
0.0
 11
-114.956635
 21
-13.833212
 31
0.0
  0
LINE
  8
0
  6
CONTINUOUS
 62
    15
 10
-114.956635
 20
-13.833212
 30
0.0
 11
-114.933121
 21
-14.054431
 31
0.0
  0
LINE
  8
0
  6
CONTINUOUS
 62
    15
 10
-116.272781
 20
-14.709292
 30
0.0
 11
-116.174095
 21
-14.531996
 31
0.0
  0
LINE
  8
0
  6
CONTINUOUS
 62
    15
 10
-116.174095
 20
-14.531996
 30
0.0
 11
-116.058868
 21
-14.391294
 31
0.0
  0
LINE
  8
0
  6
CONTINUOUS
 62
    15
 10
-116.058868
 20
-14.391294
 30
0.0
 11
-115.930412
 21
-14.288036
 31
0.0
  0
LINE
  8
0
  6
CONTINUOUS
 62
    15
 10
-115.930412
 20
-14.288036
 30
0.0
 11
-115.792038
 21
-14.223076
 31
0.0
  0
LINE
  8
0
  6
CONTINUOUS
 62
    15
 10
-115.792038
 20
-14.223076
 30
0.0
 11
-115.647049
 21
-14.197264
 31
0.0
  0
LINE
  8
0
  6
CONTINUOUS
 62
    15
 10
-115.647049
 20
-14.197264
 30
0.0
 11
-115.498749
 21
-14.211448
 31
0.0
  0
LINE
  8
0
  6
CONTINUOUS
 62
    15
 10
-115.498749
 20
-14.211448
 30
0.0
 11
-115.350456
 21
-14.266481
 31
0.0
  0
LINE
  8
0
  6
CONTINUOUS
 62
    15
 10
-115.350456
 20
-14.266481
 30
0.0
 11
-115.205467
 21
-14.363214
 31
0.0
  0
LINE
  8
0
  6
CONTINUOUS
 62
    15
 10
-115.205467
 20
-14.363214
 30
0.0
 11
-115.067093
 21
-14.502498
 31
0.0
  0
LINE
  8
0
  6
CONTINUOUS
 62
    15
 10
-127.272919
 20
-14.617489
 30
0.0
 11
-127.258224
 21
-14.420287
 31
0.0
  0
LINE
  8
0
  6
CONTINUOUS
 62
    15
 10
-127.258224
 20
-14.420287
 30
0.0
 11
-127.214844
 21
-14.244929
 31
0.0
  0
LINE
  8
0
  6
CONTINUOUS
 62
    15
 10
-127.214844
 20
-14.244929
 30
0.0
 11
-127.143913
 21
-14.095385
 31
0.0
  0
LINE
  8
0
  6
CONTINUOUS
 62
    15
 10
-127.143913
 20
-14.095385
 30
0.0
 11
-127.046509
 21
-13.975627
 31
0.0
  0
LINE
  8
0
  6
CONTINUOUS
 62
    15
 10
-127.046509
 20
-13.975627
 30
0.0
 11
-126.923752
 21
-13.889627
 31
0.0
  0
LINE
  8
0
  6
CONTINUOUS
 62
    15
 10
-126.923752
 20
-13.889627
 30
0.0
 11
-126.776733
 21
-13.841356
 31
0.0
  0
LINE
  8
0
  6
CONTINUOUS
 62
    15
 10
-126.776733
 20
-13.841356
 30
0.0
 11
-126.606567
 21
-13.834785
 31
0.0
  0
LINE
  8
0
  6
CONTINUOUS
 62
    15
 10
-126.606567
 20
-13.834785
 30
0.0
 11
-126.414337
 21
-13.873884
 31
0.0
  0
LINE
  8
0
  6
CONTINUOUS
 62
    15
 10
-126.414337
 20
-13.873884
 30
0.0
 11
-126.201172
 21
-13.962627
 31
0.0
  0
LINE
  8
0
  6
CONTINUOUS
 62
    15
 10
-126.335144
 20
-14.376217
 30
0.0
 11
-126.192551
 21
-14.168522
 31
0.0
  0
LINE
  8
0
  6
CONTINUOUS
 62
    15
 10
-126.192551
 20
-14.168522
 30
0.0
 11
-126.037811
 21
-14.006498
 31
0.0
  0
LINE
  8
0
  6
CONTINUOUS
 62
    15
 10
-126.037811
 20
-14.006498
 30
0.0
 11
-125.878677
 21
-13.892414
 31
0.0
  0
LINE
  8
0
  6
CONTINUOUS
 62
    15
 10
-125.878677
 20
-13.892414
 30
0.0
 11
-125.722839
 21
-13.82854
 31
0.0
  0
LINE
  8
0
  6
CONTINUOUS
 62
    15
 10
-125.722839
 20
-13.82854
 30
0.0
 11
-125.578033
 21
-13.817146
 31
0.0
  0
LINE
  8
0
  6
CONTINUOUS
 62
    15
 10
-125.578033
 20
-13.817146
 30
0.0
 11
-125.451981
 21
-13.8605
 31
0.0
  0
LINE
  8
0
  6
CONTINUOUS
 62
    15
 10
-125.451981
 20
-13.8605
 30
0.0
 11
-125.352371
 21
-13.960875
 31
0.0
  0
LINE
  8
0
  6
CONTINUOUS
 62
    15
 10
-125.352371
 20
-13.960875
 30
0.0
 11
-125.286949
 21
-14.120536
 31
0.0
  0
LINE
  8
0
  6
CONTINUOUS
 62
    15
 10
-125.286949
 20
-14.120536
 30
0.0
 11
-125.263428
 21
-14.341755
 31
0.0
  0
LINE
  8
0
  6
CONTINUOUS
 62
    15
 10
-137.603226
 20
-14.904815
 30
0.0
 11
-137.588531
 21
-14.707613
 31
0.0
  0
LINE
  8
0
  6
CONTINUOUS
 62
    15
 10
-137.588531
 20
-14.707613
 30
0.0
 11
-137.545151
 21
-14.532253
 31
0.0
  0
LINE
  8
0
  6
CONTINUOUS
 62
    15
 10
-137.545151
 20
-14.532253
 30
0.0
 11
-137.474228
 21
-14.38271
 31
0.0
  0
LINE
  8
0
  6
CONTINUOUS
 62
    15
 10
-137.474228
 20
-14.38271
 30
0.0
 11
-137.376816
 21
-14.262953
 31
0.0
  0
LINE
  8
0
  6
CONTINUOUS
 62
    15
 10
-137.376816
 20
-14.262953
 30
0.0
 11
-137.254059
 21
-14.176952
 31
0.0
  0
LINE
  8
0
  6
CONTINUOUS
 62
    15
 10
-137.254059
 20
-14.176952
 30
0.0
 11
-137.10704
 21
-14.128681
 31
0.0
  0
LINE
  8
0
  6
CONTINUOUS
 62
    15
 10
-137.10704
 20
-14.128681
 30
0.0
 11
-136.936874
 21
-14.12211
 31
0.0
  0
LINE
  8
0
  6
CONTINUOUS
 62
    15
 10
-136.936874
 20
-14.12211
 30
0.0
 11
-136.744644
 21
-14.161209
 31
0.0
  0
LINE
  8
0
  6
CONTINUOUS
 62
    15
 10
-136.744644
 20
-14.161209
 30
0.0
 11
-136.531479
 21
-14.249953
 31
0.0
  0
LINE
  8
0
  6
CONTINUOUS
 62
    15
 10
-136.665451
 20
-14.663543
 30
0.0
 11
-136.522858
 21
-14.455848
 31
0.0
  0
LINE
  8
0
  6
CONTINUOUS
 62
    15
 10
-136.522858
 20
-14.455848
 30
0.0
 11
-136.368118
 21
-14.293823
 31
0.0
  0
LINE
  8
0
  6
CONTINUOUS
 62
    15
 10
-136.368118
 20
-14.293823
 30
0.0
 11
-136.208984
 21
-14.17974
 31
0.0
  0
LINE
  8
0
  6
CONTINUOUS
 62
    15
 10
-136.208984
 20
-14.17974
 30
0.0
 11
-136.053146
 21
-14.115866
 31
0.0
  0
LINE
  8
0
  6
CONTINUOUS
 62
    15
 10
-136.053146
 20
-14.115866
 30
0.0
 11
-135.90834
 21
-14.104472
 31
0.0
  0
LINE
  8
0
  6
CONTINUOUS
 62
    15
 10
-135.90834
 20
-14.104472
 30
0.0
 11
-135.782288
 21
-14.147826
 31
0.0
  0
LINE
  8
0
  6
CONTINUOUS
 62
    15
 10
-135.782288
 20
-14.147826
 30
0.0
 11
-135.682678
 21
-14.248199
 31
0.0
  0
LINE
  8
0
  6
CONTINUOUS
 62
    15
 10
-135.682678
 20
-14.248199
 30
0.0
 11
-135.617264
 21
-14.407862
 31
0.0
  0
LINE
  8
0
  6
CONTINUOUS
 62
    15
 10
-135.617264
 20
-14.407862
 30
0.0
 11
-135.593735
 21
-14.629081
 31
0.0
  0
LINE
  8
0
  6
CONTINUOUS
 62
    15
 10
-147.933548
 20
-15.192141
 30
0.0
 11
-147.918839
 21
-14.994938
 31
0.0
  0
LINE
  8
0
  6
CONTINUOUS
 62
    15
 10
-147.918839
 20
-14.994938
 30
0.0
 11
-147.875473
 21
-14.81958
 31
0.0
  0
LINE
  8
0
  6
CONTINUOUS
 62
    15
 10
-147.875473
 20
-14.81958
 30
0.0
 11
-147.804535
 21
-14.670035
 31
0.0
  0
LINE
  8
0
  6
CONTINUOUS
 62
    15
 10
-147.804535
 20
-14.670035
 30
0.0
 11
-147.707138
 21
-14.550278
 31
0.0
  0
LINE
  8
0
  6
CONTINUOUS
 62
    15
 10
-147.707138
 20
-14.550278
 30
0.0
 11
-147.584366
 21
-14.464278
 31
0.0
  0
LINE
  8
0
  6
CONTINUOUS
 62
    15
 10
-147.584366
 20
-14.464278
 30
0.0
 11
-147.437363
 21
-14.416007
 31
0.0
  0
LINE
  8
0
  6
CONTINUOUS
 62
    15
 10
-147.437363
 20
-14.416007
 30
0.0
 11
-147.267197
 21
-14.409435
 31
0.0
  0
LINE
  8
0
  6
CONTINUOUS
 62
    15
 10
-147.267197
 20
-14.409435
 30
0.0
 11
-147.074966
 21
-14.448535
 31
0.0
  0
LINE
  8
0
  6
CONTINUOUS
 62
    15
 10
-147.074966
 20
-14.448535
 30
0.0
 11
-146.861801
 21
-14.537279
 31
0.0
  0
LINE
  8
0
  6
CONTINUOUS
 62
    15
 10
-146.995773
 20
-14.950869
 30
0.0
 11
-146.853165
 21
-14.743174
 31
0.0
  0
LINE
  8
0
  6
CONTINUOUS
 62
    15
 10
-146.853165
 20
-14.743174
 30
0.0
 11
-146.698441
 21
-14.581149
 31
0.0
  0
LINE
  8
0
  6
CONTINUOUS
 62
    15
 10
-146.698441
 20
-14.581149
 30
0.0
 11
-146.539291
 21
-14.467066
 31
0.0
  0
LINE
  8
0
  6
CONTINUOUS
 62
    15
 10
-146.539291
 20
-14.467066
 30
0.0
 11
-146.383469
 21
-14.403191
 31
0.0
  0
LINE
  8
0
  6
CONTINUOUS
 62
    15
 10
-146.383469
 20
-14.403191
 30
0.0
 11
-146.238663
 21
-14.391798
 31
0.0
  0
LINE
  8
0
  6
CONTINUOUS
 62
    15
 10
-146.238663
 20
-14.391798
 30
0.0
 11
-146.112595
 21
-14.435152
 31
0.0
  0
LINE
  8
0
  6
CONTINUOUS
 62
    15
 10
-146.112595
 20
-14.435152
 30
0.0
 11
-146.012985
 21
-14.535525
 31
0.0
  0
LINE
  8
0
  6
CONTINUOUS
 62
    15
 10
-146.012985
 20
-14.535525
 30
0.0
 11
-145.947571
 21
-14.695187
 31
0.0
  0
LINE
  8
0
  6
CONTINUOUS
 62
    15
 10
-145.947571
 20
-14.695187
 30
0.0
 11
-145.924057
 21
-14.916407
 31
0.0
  0
LINE
  8
0
  6
CONTINUOUS
 62
    15
 10
-157.32608
 20
-15.238194
 30
0.0
 11
-157.183487
 21
-15.030499
 31
0.0
  0
LINE
  8
0
  6
CONTINUOUS
 62
    15
 10
-157.183487
 20
-15.030499
 30
0.0
 11
-157.028748
 21
-14.868475
 31
0.0
  0
LINE
  8
0
  6
CONTINUOUS
 62
    15
 10
-157.028748
 20
-14.868475
 30
0.0
 11
-156.869614
 21
-14.754391
 31
0.0
  0
LINE
  8
0
  6
CONTINUOUS
 62
    15
 10
-156.869614
 20
-14.754391
 30
0.0
 11
-156.713776
 21
-14.690516
 31
0.0
  0
LINE
  8
0
  6
CONTINUOUS
 62
    15
 10
-156.713776
 20
-14.690516
 30
0.0
 11
-156.56897
 21
-14.679123
 31
0.0
  0
LINE
  8
0
  6
CONTINUOUS
 62
    15
 10
-156.56897
 20
-14.679123
 30
0.0
 11
-156.442917
 21
-14.722477
 31
0.0
  0
LINE
  8
0
  6
CONTINUOUS
 62
    15
 10
-156.442917
 20
-14.722477
 30
0.0
 11
-156.343307
 21
-14.822851
 31
0.0
  0
LINE
  8
0
  6
CONTINUOUS
 62
    15
 10
-156.343307
 20
-14.822851
 30
0.0
 11
-156.277878
 21
-14.982512
 31
0.0
  0
LINE
  8
0
  6
CONTINUOUS
 62
    15
 10
-156.277878
 20
-14.982512
 30
0.0
 11
-156.254364
 21
-15.203732
 31
0.0
  0
LINE
  8
0
  6
CONTINUOUS
 62
    15
 10
-120.97406
 20
-15.191821
 30
0.0
 11
-121.114647
 21
-14.964268
 31
0.0
  0
LINE
  8
0
  6
CONTINUOUS
 62
    15
 10
-121.114647
 20
-14.964268
 30
0.0
 11
-121.18576
 21
-14.762812
 31
0.0
  0
LINE
  8
0
  6
CONTINUOUS
 62
    15
 10
-121.18576
 20
-14.762812
 30
0.0
 11
-121.197342
 21
-14.585468
 31
0.0
  0
LINE
  8
0
  6
CONTINUOUS
 62
    15
 10
-121.197342
 20
-14.585468
 30
0.0
 11
-121.159294
 21
-14.430251
 31
0.0
  0
LINE
  8
0
  6
CONTINUOUS
 62
    15
 10
-121.159294
 20
-14.430251
 30
0.0
 11
-121.081566
 21
-14.295176
 31
0.0
  0
LINE
  8
0
  6
CONTINUOUS
 62
    15
 10
-121.081566
 20
-14.295176
 30
0.0
 11
-120.97406
 21
-14.178255
 31
0.0
  0
LINE
  8
0
  6
CONTINUOUS
 62
    15
 10
-120.97406
 20
-14.178255
 30
0.0
 11
-120.84671
 21
-14.077503
 31
0.0
  0
LINE
  8
0
  6
CONTINUOUS
 62
    15
 10
-120.84671
 20
-14.077503
 30
0.0
 11
-120.709442
 21
-13.990936
 31
0.0
  0
LINE
  8
0
  6
CONTINUOUS
 62
    15
 10
-120.709442
 20
-13.990936
 30
0.0
 11
-120.572174
 21
-13.916568
 31
0.0
  0
LINE
  8
0
  6
CONTINUOUS
 62
    15
 10
-120.572174
 20
-14.330165
 30
0.0
 11
-120.55748
 21
-14.132963
 31
0.0
  0
LINE
  8
0
  6
CONTINUOUS
 62
    15
 10
-120.55748
 20
-14.132963
 30
0.0
 11
-120.514099
 21
-13.957603
 31
0.0
  0
LINE
  8
0
  6
CONTINUOUS
 62
    15
 10
-120.514099
 20
-13.957603
 30
0.0
 11
-120.443169
 21
-13.80806
 31
0.0
  0
LINE
  8
0
  6
CONTINUOUS
 62
    15
 10
-120.443169
 20
-13.80806
 30
0.0
 11
-120.345764
 21
-13.688303
 31
0.0
  0
LINE
  8
0
  6
CONTINUOUS
 62
    15
 10
-120.345764
 20
-13.688303
 30
0.0
 11
-120.223007
 21
-13.602303
 31
0.0
  0
LINE
  8
0
  6
CONTINUOUS
 62
    15
 10
-120.223007
 20
-13.602303
 30
0.0
 11
-120.075989
 21
-13.554031
 31
0.0
  0
LINE
  8
0
  6
CONTINUOUS
 62
    15
 10
-120.075989
 20
-13.554031
 30
0.0
 11
-119.905823
 21
-13.547461
 31
0.0
  0
LINE
  8
0
  6
CONTINUOUS
 62
    15
 10
-119.905823
 20
-13.547461
 30
0.0
 11
-119.713593
 21
-13.586559
 31
0.0
  0
LINE
  8
0
  6
CONTINUOUS
 62
    15
 10
-119.713593
 20
-13.586559
 30
0.0
 11
-119.500427
 21
-13.675303
 31
0.0
  0
LINE
  8
0
  6
CONTINUOUS
 62
    15
 10
-119.634399
 20
-14.088893
 30
0.0
 11
-119.491806
 21
-13.881198
 31
0.0
  0
LINE
  8
0
  6
CONTINUOUS
 62
    15
 10
-119.491806
 20
-13.881198
 30
0.0
 11
-119.337067
 21
-13.719173
 31
0.0
  0
LINE
  8
0
  6
CONTINUOUS
 62
    15
 10
-119.337067
 20
-13.719173
 30
0.0
 11
-119.177933
 21
-13.60509
 31
0.0
  0
LINE
  8
0
  6
CONTINUOUS
 62
    15
 10
-119.177933
 20
-13.60509
 30
0.0
 11
-119.022095
 21
-13.541216
 31
0.0
  0
LINE
  8
0
  6
CONTINUOUS
 62
    15
 10
-119.022095
 20
-13.541216
 30
0.0
 11
-118.877289
 21
-13.529822
 31
0.0
  0
LINE
  8
0
  6
CONTINUOUS
 62
    15
 10
-118.877289
 20
-13.529822
 30
0.0
 11
-118.751236
 21
-13.573176
 31
0.0
  0
LINE
  8
0
  6
CONTINUOUS
 62
    15
 10
-118.751236
 20
-13.573176
 30
0.0
 11
-118.651627
 21
-13.67355
 31
0.0
  0
LINE
  8
0
  6
CONTINUOUS
 62
    15
 10
-118.651627
 20
-13.67355
 30
0.0
 11
-118.586205
 21
-13.833212
 31
0.0
  0
LINE
  8
0
  6
CONTINUOUS
 62
    15
 10
-118.586205
 20
-13.833212
 30
0.0
 11
-118.562683
 21
-14.054431
 31
0.0
  0
LINE
  8
0
  6
CONTINUOUS
 62
    15
 10
-119.902344
 20
-14.709292
 30
0.0
 11
-119.803665
 21
-14.531996
 31
0.0
  0
LINE
  8
0
  6
CONTINUOUS
 62
    15
 10
-119.803665
 20
-14.531996
 30
0.0
 11
-119.688438
 21
-14.391294
 31
0.0
  0
LINE
  8
0
  6
CONTINUOUS
 62
    15
 10
-119.688438
 20
-14.391294
 30
0.0
 11
-119.559982
 21
-14.288036
 31
0.0
  0
LINE
  8
0
  6
CONTINUOUS
 62
    15
 10
-119.559982
 20
-14.288036
 30
0.0
 11
-119.4216
 21
-14.223076
 31
0.0
  0
LINE
  8
0
  6
CONTINUOUS
 62
    15
 10
-119.4216
 20
-14.223076
 30
0.0
 11
-119.276611
 21
-14.197264
 31
0.0
  0
LINE
  8
0
  6
CONTINUOUS
 62
    15
 10
-119.276611
 20
-14.197264
 30
0.0
 11
-119.128319
 21
-14.211448
 31
0.0
  0
LINE
  8
0
  6
CONTINUOUS
 62
    15
 10
-119.128319
 20
-14.211448
 30
0.0
 11
-118.980026
 21
-14.266481
 31
0.0
  0
LINE
  8
0
  6
CONTINUOUS
 62
    15
 10
-118.980026
 20
-14.266481
 30
0.0
 11
-118.835037
 21
-14.363214
 31
0.0
  0
LINE
  8
0
  6
CONTINUOUS
 62
    15
 10
-118.835037
 20
-14.363214
 30
0.0
 11
-118.696655
 21
-14.502498
 31
0.0
  0
LINE
  8
0
  6
CONTINUOUS
 62
    15
 10
-124.60363
 20
-15.191821
 30
0.0
 11
-124.744217
 21
-14.964268
 31
0.0
  0
LINE
  8
0
  6
CONTINUOUS
 62
    15
 10
-124.744217
 20
-14.964268
 30
0.0
 11
-124.815331
 21
-14.762812
 31
0.0
  0
LINE
  8
0
  6
CONTINUOUS
 62
    15
 10
-124.815331
 20
-14.762812
 30
0.0
 11
-124.826904
 21
-14.585468
 31
0.0
  0
LINE
  8
0
  6
CONTINUOUS
 62
    15
 10
-124.826904
 20
-14.585468
 30
0.0
 11
-124.788864
 21
-14.430251
 31
0.0
  0
LINE
  8
0
  6
CONTINUOUS
 62
    15
 10
-124.788864
 20
-14.430251
 30
0.0
 11
-124.711136
 21
-14.295176
 31
0.0
  0
LINE
  8
0
  6
CONTINUOUS
 62
    15
 10
-124.711136
 20
-14.295176
 30
0.0
 11
-124.60363
 21
-14.178255
 31
0.0
  0
LINE
  8
0
  6
CONTINUOUS
 62
    15
 10
-124.60363
 20
-14.178255
 30
0.0
 11
-124.47628
 21
-14.077503
 31
0.0
  0
LINE
  8
0
  6
CONTINUOUS
 62
    15
 10
-124.47628
 20
-14.077503
 30
0.0
 11
-124.339012
 21
-13.990936
 31
0.0
  0
LINE
  8
0
  6
CONTINUOUS
 62
    15
 10
-124.339012
 20
-13.990936
 30
0.0
 11
-124.201744
 21
-13.916568
 31
0.0
  0
LINE
  8
0
  6
CONTINUOUS
 62
    15
 10
-124.201744
 20
-14.330165
 30
0.0
 11
-124.187042
 21
-14.132963
 31
0.0
  0
LINE
  8
0
  6
CONTINUOUS
 62
    15
 10
-124.187042
 20
-14.132963
 30
0.0
 11
-124.143669
 21
-13.957603
 31
0.0
  0
LINE
  8
0
  6
CONTINUOUS
 62
    15
 10
-124.143669
 20
-13.957603
 30
0.0
 11
-124.072739
 21
-13.80806
 31
0.0
  0
LINE
  8
0
  6
CONTINUOUS
 62
    15
 10
-124.072739
 20
-13.80806
 30
0.0
 11
-123.975334
 21
-13.688303
 31
0.0
  0
LINE
  8
0
  6
CONTINUOUS
 62
    15
 10
-123.975334
 20
-13.688303
 30
0.0
 11
-123.85257
 21
-13.602303
 31
0.0
  0
LINE
  8
0
  6
CONTINUOUS
 62
    15
 10
-123.85257
 20
-13.602303
 30
0.0
 11
-123.705559
 21
-13.554031
 31
0.0
  0
LINE
  8
0
  6
CONTINUOUS
 62
    15
 10
-123.705559
 20
-13.554031
 30
0.0
 11
-123.535393
 21
-13.547461
 31
0.0
  0
LINE
  8
0
  6
CONTINUOUS
 62
    15
 10
-123.535393
 20
-13.547461
 30
0.0
 11
-123.343163
 21
-13.586559
 31
0.0
  0
LINE
  8
0
  6
CONTINUOUS
 62
    15
 10
-123.343163
 20
-13.586559
 30
0.0
 11
-123.129997
 21
-13.675303
 31
0.0
  0
LINE
  8
0
  6
CONTINUOUS
 62
    15
 10
-123.263969
 20
-14.088893
 30
0.0
 11
-123.121368
 21
-13.881198
 31
0.0
  0
LINE
  8
0
  6
CONTINUOUS
 62
    15
 10
-123.121368
 20
-13.881198
 30
0.0
 11
-122.966637
 21
-13.719173
 31
0.0
  0
LINE
  8
0
  6
CONTINUOUS
 62
    15
 10
-122.966637
 20
-13.719173
 30
0.0
 11
-122.807495
 21
-13.60509
 31
0.0
  0
LINE
  8
0
  6
CONTINUOUS
 62
    15
 10
-122.807495
 20
-13.60509
 30
0.0
 11
-122.651665
 21
-13.541216
 31
0.0
  0
LINE
  8
0
  6
CONTINUOUS
 62
    15
 10
-122.651665
 20
-13.541216
 30
0.0
 11
-122.506859
 21
-13.529822
 31
0.0
  0
LINE
  8
0
  6
CONTINUOUS
 62
    15
 10
-122.506859
 20
-13.529822
 30
0.0
 11
-122.380798
 21
-13.573176
 31
0.0
  0
LINE
  8
0
  6
CONTINUOUS
 62
    15
 10
-122.380798
 20
-13.573176
 30
0.0
 11
-122.281189
 21
-13.67355
 31
0.0
  0
LINE
  8
0
  6
CONTINUOUS
 62
    15
 10
-122.281189
 20
-13.67355
 30
0.0
 11
-122.215775
 21
-13.833212
 31
0.0
  0
LINE
  8
0
  6
CONTINUOUS
 62
    15
 10
-122.215775
 20
-13.833212
 30
0.0
 11
-122.192253
 21
-14.054431
 31
0.0
  0
LINE
  8
0
  6
CONTINUOUS
 62
    15
 10
-123.531914
 20
-14.709292
 30
0.0
 11
-123.433228
 21
-14.531996
 31
0.0
  0
LINE
  8
0
  6
CONTINUOUS
 62
    15
 10
-123.433228
 20
-14.531996
 30
0.0
 11
-123.318008
 21
-14.391294
 31
0.0
  0
LINE
  8
0
  6
CONTINUOUS
 62
    15
 10
-123.318008
 20
-14.391294
 30
0.0
 11
-123.189545
 21
-14.288036
 31
0.0
  0
LINE
  8
0
  6
CONTINUOUS
 62
    15
 10
-123.189545
 20
-14.288036
 30
0.0
 11
-123.05117
 21
-14.223076
 31
0.0
  0
LINE
  8
0
  6
CONTINUOUS
 62
    15
 10
-123.05117
 20
-14.223076
 30
0.0
 11
-122.906181
 21
-14.197264
 31
0.0
  0
LINE
  8
0
  6
CONTINUOUS
 62
    15
 10
-122.906181
 20
-14.197264
 30
0.0
 11
-122.757889
 21
-14.211448
 31
0.0
  0
LINE
  8
0
  6
CONTINUOUS
 62
    15
 10
-122.757889
 20
-14.211448
 30
0.0
 11
-122.609589
 21
-14.266481
 31
0.0
  0
LINE
  8
0
  6
CONTINUOUS
 62
    15
 10
-122.609589
 20
-14.266481
 30
0.0
 11
-122.4646
 21
-14.363214
 31
0.0
  0
LINE
  8
0
  6
CONTINUOUS
 62
    15
 10
-122.4646
 20
-14.363214
 30
0.0
 11
-122.326225
 21
-14.502498
 31
0.0
  0
LINE
  8
0
  6
CONTINUOUS
 62
    15
 10
-128.2332
 20
-15.191821
 30
0.0
 11
-128.373779
 21
-14.964268
 31
0.0
  0
LINE
  8
0
  6
CONTINUOUS
 62
    15
 10
-128.373779
 20
-14.964268
 30
0.0
 11
-128.444901
 21
-14.762812
 31
0.0
  0
LINE
  8
0
  6
CONTINUOUS
 62
    15
 10
-128.444901
 20
-14.762812
 30
0.0
 11
-128.456467
 21
-14.585468
 31
0.0
  0
LINE
  8
0
  6
CONTINUOUS
 62
    15
 10
-128.456467
 20
-14.585468
 30
0.0
 11
-128.418427
 21
-14.430251
 31
0.0
  0
LINE
  8
0
  6
CONTINUOUS
 62
    15
 10
-128.418427
 20
-14.430251
 30
0.0
 11
-128.340698
 21
-14.295176
 31
0.0
  0
LINE
  8
0
  6
CONTINUOUS
 62
    15
 10
-128.340698
 20
-14.295176
 30
0.0
 11
-128.2332
 21
-14.178255
 31
0.0
  0
LINE
  8
0
  6
CONTINUOUS
 62
    15
 10
-128.2332
 20
-14.178255
 30
0.0
 11
-128.10585
 21
-14.077503
 31
0.0
  0
LINE
  8
0
  6
CONTINUOUS
 62
    15
 10
-128.10585
 20
-14.077503
 30
0.0
 11
-127.968582
 21
-13.990936
 31
0.0
  0
LINE
  8
0
  6
CONTINUOUS
 62
    15
 10
-127.968582
 20
-13.990936
 30
0.0
 11
-127.831314
 21
-13.916568
 31
0.0
  0
LINE
  8
0
  6
CONTINUOUS
 62
    15
 10
-127.831314
 20
-14.330165
 30
0.0
 11
-127.816612
 21
-14.132963
 31
0.0
  0
LINE
  8
0
  6
CONTINUOUS
 62
    15
 10
-127.816612
 20
-14.132963
 30
0.0
 11
-127.773239
 21
-13.957603
 31
0.0
  0
LINE
  8
0
  6
CONTINUOUS
 62
    15
 10
-127.773239
 20
-13.957603
 30
0.0
 11
-127.702301
 21
-13.80806
 31
0.0
  0
LINE
  8
0
  6
CONTINUOUS
 62
    15
 10
-127.702301
 20
-13.80806
 30
0.0
 11
-127.604904
 21
-13.688303
 31
0.0
  0
LINE
  8
0
  6
CONTINUOUS
 62
    15
 10
-127.604904
 20
-13.688303
 30
0.0
 11
-127.48214
 21
-13.602303
 31
0.0
  0
LINE
  8
0
  6
CONTINUOUS
 62
    15
 10
-127.48214
 20
-13.602303
 30
0.0
 11
-127.335129
 21
-13.554031
 31
0.0
  0
LINE
  8
0
  6
CONTINUOUS
 62
    15
 10
-127.335129
 20
-13.554031
 30
0.0
 11
-127.164963
 21
-13.547461
 31
0.0
  0
LINE
  8
0
  6
CONTINUOUS
 62
    15
 10
-127.164963
 20
-13.547461
 30
0.0
 11
-126.972733
 21
-13.586559
 31
0.0
  0
LINE
  8
0
  6
CONTINUOUS
 62
    15
 10
-126.972733
 20
-13.586559
 30
0.0
 11
-126.759567
 21
-13.675303
 31
0.0
  0
LINE
  8
0
  6
CONTINUOUS
 62
    15
 10
-126.893539
 20
-14.088893
 30
0.0
 11
-126.750938
 21
-13.881198
 31
0.0
  0
LINE
  8
0
  6
CONTINUOUS
 62
    15
 10
-126.750938
 20
-13.881198
 30
0.0
 11
-126.596207
 21
-13.719173
 31
0.0
  0
LINE
  8
0
  6
CONTINUOUS
 62
    15
 10
-126.596207
 20
-13.719173
 30
0.0
 11
-126.437065
 21
-13.60509
 31
0.0
  0
LINE
  8
0
  6
CONTINUOUS
 62
    15
 10
-126.437065
 20
-13.60509
 30
0.0
 11
-126.281235
 21
-13.541216
 31
0.0
  0
LINE
  8
0
  6
CONTINUOUS
 62
    15
 10
-126.281235
 20
-13.541216
 30
0.0
 11
-126.136429
 21
-13.529822
 31
0.0
  0
LINE
  8
0
  6
CONTINUOUS
 62
    15
 10
-126.136429
 20
-13.529822
 30
0.0
 11
-126.010368
 21
-13.573176
 31
0.0
  0
LINE
  8
0
  6
CONTINUOUS
 62
    15
 10
-126.010368
 20
-13.573176
 30
0.0
 11
-125.910759
 21
-13.67355
 31
0.0
  0
LINE
  8
0
  6
CONTINUOUS
 62
    15
 10
-125.910759
 20
-13.67355
 30
0.0
 11
-125.845337
 21
-13.833212
 31
0.0
  0
LINE
  8
0
  6
CONTINUOUS
 62
    15
 10
-125.845337
 20
-13.833212
 30
0.0
 11
-125.821823
 21
-14.054431
 31
0.0
  0
LINE
  8
0
  6
CONTINUOUS
 62
    15
 10
-131.460876
 20
-14.330165
 30
0.0
 11
-131.446182
 21
-14.132963
 31
0.0
  0
LINE
  8
0
  6
CONTINUOUS
 62
    15
 10
-131.446182
 20
-14.132963
 30
0.0
 11
-131.402802
 21
-13.957603
 31
0.0
  0
LINE
  8
0
  6
CONTINUOUS
 62
    15
 10
-131.402802
 20
-13.957603
 30
0.0
 11
-131.331863
 21
-13.80806
 31
0.0
  0
LINE
  8
0
  6
CONTINUOUS
 62
    15
 10
-131.331863
 20
-13.80806
 30
0.0
 11
-131.234467
 21
-13.688303
 31
0.0
  0
LINE
  8
0
  6
CONTINUOUS
 62
    15
 10
-131.234467
 20
-13.688303
 30
0.0
 11
-131.11171
 21
-13.602303
 31
0.0
  0
LINE
  8
0
  6
CONTINUOUS
 62
    15
 10
-131.11171
 20
-13.602303
 30
0.0
 11
-130.964691
 21
-13.554031
 31
0.0
  0
LINE
  8
0
  6
CONTINUOUS
 62
    15
 10
-130.964691
 20
-13.554031
 30
0.0
 11
-130.794525
 21
-13.547461
 31
0.0
  0
LINE
  8
0
  6
CONTINUOUS
 62
    15
 10
-130.794525
 20
-13.547461
 30
0.0
 11
-130.602295
 21
-13.586559
 31
0.0
  0
LINE
  8
0
  6
CONTINUOUS
 62
    15
 10
-130.602295
 20
-13.586559
 30
0.0
 11
-130.38913
 21
-13.675303
 31
0.0
  0
LINE
  8
0
  6
CONTINUOUS
 62
    15
 10
-130.523102
 20
-14.088893
 30
0.0
 11
-130.380508
 21
-13.881198
 31
0.0
  0
LINE
  8
0
  6
CONTINUOUS
 62
    15
 10
-130.380508
 20
-13.881198
 30
0.0
 11
-130.225769
 21
-13.719173
 31
0.0
  0
LINE
  8
0
  6
CONTINUOUS
 62
    15
 10
-130.225769
 20
-13.719173
 30
0.0
 11
-130.066635
 21
-13.60509
 31
0.0
  0
LINE
  8
0
  6
CONTINUOUS
 62
    15
 10
-130.066635
 20
-13.60509
 30
0.0
 11
-129.910797
 21
-13.541216
 31
0.0
  0
LINE
  8
0
  6
CONTINUOUS
 62
    15
 10
-129.910797
 20
-13.541216
 30
0.0
 11
-129.765991
 21
-13.529822
 31
0.0
  0
LINE
  8
0
  6
CONTINUOUS
 62
    15
 10
-129.765991
 20
-13.529822
 30
0.0
 11
-129.639938
 21
-13.573176
 31
0.0
  0
LINE
  8
0
  6
CONTINUOUS
 62
    15
 10
-129.639938
 20
-13.573176
 30
0.0
 11
-129.540329
 21
-13.67355
 31
0.0
  0
LINE
  8
0
  6
CONTINUOUS
 62
    15
 10
-129.540329
 20
-13.67355
 30
0.0
 11
-129.474899
 21
-13.833212
 31
0.0
  0
LINE
  8
0
  6
CONTINUOUS
 62
    15
 10
-129.474899
 20
-13.833212
 30
0.0
 11
-129.451385
 21
-14.054431
 31
0.0
  0
LINE
  8
0
  6
CONTINUOUS
 62
    15
 10
-135.090439
 20
-14.330165
 30
0.0
 11
-135.075745
 21
-14.132963
 31
0.0
  0
LINE
  8
0
  6
CONTINUOUS
 62
    15
 10
-135.075745
 20
-14.132963
 30
0.0
 11
-135.032364
 21
-13.957603
 31
0.0
  0
LINE
  8
0
  6
CONTINUOUS
 62
    15
 10
-135.032364
 20
-13.957603
 30
0.0
 11
-134.961441
 21
-13.80806
 31
0.0
  0
LINE
  8
0
  6
CONTINUOUS
 62
    15
 10
-134.961441
 20
-13.80806
 30
0.0
 11
-134.864029
 21
-13.688303
 31
0.0
  0
LINE
  8
0
  6
CONTINUOUS
 62
    15
 10
-134.864029
 20
-13.688303
 30
0.0
 11
-134.741272
 21
-13.602303
 31
0.0
  0
LINE
  8
0
  6
CONTINUOUS
 62
    15
 10
-134.741272
 20
-13.602303
 30
0.0
 11
-134.594254
 21
-13.554031
 31
0.0
  0
LINE
  8
0
  6
CONTINUOUS
 62
    15
 10
-134.594254
 20
-13.554031
 30
0.0
 11
-134.424088
 21
-13.547461
 31
0.0
  0
LINE
  8
0
  6
CONTINUOUS
 62
    15
 10
-134.424088
 20
-13.547461
 30
0.0
 11
-134.231857
 21
-13.586559
 31
0.0
  0
LINE
  8
0
  6
CONTINUOUS
 62
    15
 10
-134.231857
 20
-13.586559
 30
0.0
 11
-134.018692
 21
-13.675303
 31
0.0
  0
LINE
  8
0
  6
CONTINUOUS
 62
    15
 10
-134.152664
 20
-14.088893
 30
0.0
 11
-134.010071
 21
-13.881198
 31
0.0
  0
LINE
  8
0
  6
CONTINUOUS
 62
    15
 10
-134.010071
 20
-13.881198
 30
0.0
 11
-133.855331
 21
-13.719173
 31
0.0
  0
LINE
  8
0
  6
CONTINUOUS
 62
    15
 10
-133.855331
 20
-13.719173
 30
0.0
 11
-133.696198
 21
-13.60509
 31
0.0
  0
LINE
  8
0
  6
CONTINUOUS
 62
    15
 10
-133.696198
 20
-13.60509
 30
0.0
 11
-133.540359
 21
-13.541216
 31
0.0
  0
LINE
  8
0
  6
CONTINUOUS
 62
    15
 10
-133.540359
 20
-13.541216
 30
0.0
 11
-133.395554
 21
-13.529822
 31
0.0
  0
LINE
  8
0
  6
CONTINUOUS
 62
    15
 10
-133.395554
 20
-13.529822
 30
0.0
 11
-133.269501
 21
-13.573176
 31
0.0
  0
LINE
  8
0
  6
CONTINUOUS
 62
    15
 10
-133.269501
 20
-13.573176
 30
0.0
 11
-133.169891
 21
-13.67355
 31
0.0
  0
LINE
  8
0
  6
CONTINUOUS
 62
    15
 10
-133.169891
 20
-13.67355
 30
0.0
 11
-133.104477
 21
-13.833212
 31
0.0
  0
LINE
  8
0
  6
CONTINUOUS
 62
    15
 10
-133.104477
 20
-13.833212
 30
0.0
 11
-133.080948
 21
-14.054431
 31
0.0
  0
LINE
  8
0
  6
CONTINUOUS
 62
    15
 10
-140.674393
 20
-14.330165
 30
0.0
 11
-140.659698
 21
-14.132963
 31
0.0
  0
LINE
  8
0
  6
CONTINUOUS
 62
    15
 10
-140.659698
 20
-14.132963
 30
0.0
 11
-140.616318
 21
-13.957603
 31
0.0
  0
LINE
  8
0
  6
CONTINUOUS
 62
    15
 10
-140.616318
 20
-13.957603
 30
0.0
 11
-140.545395
 21
-13.80806
 31
0.0
  0
LINE
  8
0
  6
CONTINUOUS
 62
    15
 10
-140.545395
 20
-13.80806
 30
0.0
 11
-140.447983
 21
-13.688303
 31
0.0
  0
LINE
  8
0
  6
CONTINUOUS
 62
    15
 10
-140.447983
 20
-13.688303
 30
0.0
 11
-140.325226
 21
-13.602303
 31
0.0
  0
LINE
  8
0
  6
CONTINUOUS
 62
    15
 10
-140.325226
 20
-13.602303
 30
0.0
 11
-140.178207
 21
-13.554031
 31
0.0
  0
LINE
  8
0
  6
CONTINUOUS
 62
    15
 10
-140.178207
 20
-13.554031
 30
0.0
 11
-140.008041
 21
-13.547461
 31
0.0
  0
LINE
  8
0
  6
CONTINUOUS
 62
    15
 10
-140.008041
 20
-13.547461
 30
0.0
 11
-139.815811
 21
-13.586559
 31
0.0
  0
LINE
  8
0
  6
CONTINUOUS
 62
    15
 10
-139.815811
 20
-13.586559
 30
0.0
 11
-139.602646
 21
-13.675303
 31
0.0
  0
LINE
  8
0
  6
CONTINUOUS
 62
    15
 10
-139.736618
 20
-14.088893
 30
0.0
 11
-139.594025
 21
-13.881198
 31
0.0
  0
LINE
  8
0
  6
CONTINUOUS
 62
    15
 10
-139.594025
 20
-13.881198
 30
0.0
 11
-139.439285
 21
-13.719173
 31
0.0
  0
LINE
  8
0
  6
CONTINUOUS
 62
    15
 10
-139.439285
 20
-13.719173
 30
0.0
 11
-139.280151
 21
-13.60509
 31
0.0
  0
LINE
  8
0
  6
CONTINUOUS
 62
    15
 10
-139.280151
 20
-13.60509
 30
0.0
 11
-139.124313
 21
-13.541216
 31
0.0
  0
LINE
  8
0
  6
CONTINUOUS
 62
    15
 10
-139.124313
 20
-13.541216
 30
0.0
 11
-138.979507
 21
-13.529822
 31
0.0
  0
LINE
  8
0
  6
CONTINUOUS
 62
    15
 10
-138.979507
 20
-13.529822
 30
0.0
 11
-138.853455
 21
-13.573176
 31
0.0
  0
LINE
  8
0
  6
CONTINUOUS
 62
    15
 10
-138.853455
 20
-13.573176
 30
0.0
 11
-138.753845
 21
-13.67355
 31
0.0
  0
LINE
  8
0
  6
CONTINUOUS
 62
    15
 10
-138.753845
 20
-13.67355
 30
0.0
 11
-138.688431
 21
-13.833212
 31
0.0
  0
LINE
  8
0
  6
CONTINUOUS
 62
    15
 10
-138.688431
 20
-13.833212
 30
0.0
 11
-138.664902
 21
-14.054431
 31
0.0
  0
LINE
  8
0
  6
CONTINUOUS
 62
    15
 10
-146.660233
 20
-15.191821
 30
0.0
 11
-146.800827
 21
-14.964268
 31
0.0
  0
LINE
  8
0
  6
CONTINUOUS
 62
    15
 10
-146.800827
 20
-14.964268
 30
0.0
 11
-146.871933
 21
-14.762812
 31
0.0
  0
LINE
  8
0
  6
CONTINUOUS
 62
    15
 10
-146.871933
 20
-14.762812
 30
0.0
 11
-146.883514
 21
-14.585468
 31
0.0
  0
LINE
  8
0
  6
CONTINUOUS
 62
    15
 10
-146.883514
 20
-14.585468
 30
0.0
 11
-146.845474
 21
-14.430251
 31
0.0
  0
LINE
  8
0
  6
CONTINUOUS
 62
    15
 10
-146.845474
 20
-14.430251
 30
0.0
 11
-146.767746
 21
-14.295176
 31
0.0
  0
LINE
  8
0
  6
CONTINUOUS
 62
    15
 10
-146.767746
 20
-14.295176
 30
0.0
 11
-146.660233
 21
-14.178255
 31
0.0
  0
LINE
  8
0
  6
CONTINUOUS
 62
    15
 10
-146.660233
 20
-14.178255
 30
0.0
 11
-146.532883
 21
-14.077503
 31
0.0
  0
LINE
  8
0
  6
CONTINUOUS
 62
    15
 10
-146.532883
 20
-14.077503
 30
0.0
 11
-146.395615
 21
-13.990936
 31
0.0
  0
LINE
  8
0
  6
CONTINUOUS
 62
    15
 10
-146.395615
 20
-13.990936
 30
0.0
 11
-146.258347
 21
-13.916568
 31
0.0
  0
LINE
  8
0
  6
CONTINUOUS
 62
    15
 10
-146.258347
 20
-14.330165
 30
0.0
 11
-146.243652
 21
-14.132963
 31
0.0
  0
LINE
  8
0
  6
CONTINUOUS
 62
    15
 10
-146.243652
 20
-14.132963
 30
0.0
 11
-146.200272
 21
-13.957603
 31
0.0
  0
LINE
  8
0
  6
CONTINUOUS
 62
    15
 10
-146.200272
 20
-13.957603
 30
0.0
 11
-146.129349
 21
-13.80806
 31
0.0
  0
LINE
  8
0
  6
CONTINUOUS
 62
    15
 10
-146.129349
 20
-13.80806
 30
0.0
 11
-146.031937
 21
-13.688303
 31
0.0
  0
LINE
  8
0
  6
CONTINUOUS
 62
    15
 10
-146.031937
 20
-13.688303
 30
0.0
 11
-145.90918
 21
-13.602303
 31
0.0
  0
LINE
  8
0
  6
CONTINUOUS
 62
    15
 10
-145.90918
 20
-13.602303
 30
0.0
 11
-145.762161
 21
-13.554031
 31
0.0
  0
LINE
  8
0
  6
CONTINUOUS
 62
    15
 10
-145.762161
 20
-13.554031
 30
0.0
 11
-145.591995
 21
-13.547461
 31
0.0
  0
LINE
  8
0
  6
CONTINUOUS
 62
    15
 10
-145.591995
 20
-13.547461
 30
0.0
 11
-145.399765
 21
-13.586559
 31
0.0
  0
LINE
  8
0
  6
CONTINUOUS
 62
    15
 10
-145.399765
 20
-13.586559
 30
0.0
 11
-145.1866
 21
-13.675303
 31
0.0
  0
LINE
  8
0
  6
CONTINUOUS
 62
    15
 10
-145.320572
 20
-14.088893
 30
0.0
 11
-145.177979
 21
-13.881198
 31
0.0
  0
LINE
  8
0
  6
CONTINUOUS
 62
    15
 10
-145.177979
 20
-13.881198
 30
0.0
 11
-145.023239
 21
-13.719173
 31
0.0
  0
LINE
  8
0
  6
CONTINUOUS
 62
    15
 10
-145.023239
 20
-13.719173
 30
0.0
 11
-144.864105
 21
-13.60509
 31
0.0
  0
LINE
  8
0
  6
CONTINUOUS
 62
    15
 10
-144.864105
 20
-13.60509
 30
0.0
 11
-144.708267
 21
-13.541216
 31
0.0
  0
LINE
  8
0
  6
CONTINUOUS
 62
    15
 10
-144.708267
 20
-13.541216
 30
0.0
 11
-144.563461
 21
-13.529822
 31
0.0
  0
LINE
  8
0
  6
CONTINUOUS
 62
    15
 10
-144.563461
 20
-13.529822
 30
0.0
 11
-144.437408
 21
-13.573176
 31
0.0
  0
LINE
  8
0
  6
CONTINUOUS
 62
    15
 10
-144.437408
 20
-13.573176
 30
0.0
 11
-144.337799
 21
-13.67355
 31
0.0
  0
LINE
  8
0
  6
CONTINUOUS
 62
    15
 10
-144.337799
 20
-13.67355
 30
0.0
 11
-144.272385
 21
-13.833212
 31
0.0
  0
LINE
  8
0
  6
CONTINUOUS
 62
    15
 10
-144.272385
 20
-13.833212
 30
0.0
 11
-144.248856
 21
-14.054431
 31
0.0
  0
LINE
  8
0
  6
CONTINUOUS
 62
    15
 10
-145.588516
 20
-14.709292
 30
0.0
 11
-145.489838
 21
-14.531996
 31
0.0
  0
LINE
  8
0
  6
CONTINUOUS
 62
    15
 10
-145.489838
 20
-14.531996
 30
0.0
 11
-145.374619
 21
-14.391294
 31
0.0
  0
LINE
  8
0
  6
CONTINUOUS
 62
    15
 10
-145.374619
 20
-14.391294
 30
0.0
 11
-145.246155
 21
-14.288036
 31
0.0
  0
LINE
  8
0
  6
CONTINUOUS
 62
    15
 10
-145.246155
 20
-14.288036
 30
0.0
 11
-145.107773
 21
-14.223076
 31
0.0
  0
LINE
  8
0
  6
CONTINUOUS
 62
    15
 10
-145.107773
 20
-14.223076
 30
0.0
 11
-144.962784
 21
-14.197264
 31
0.0
  0
LINE
  8
0
  6
CONTINUOUS
 62
    15
 10
-144.962784
 20
-14.197264
 30
0.0
 11
-144.814499
 21
-14.211448
 31
0.0
  0
LINE
  8
0
  6
CONTINUOUS
 62
    15
 10
-144.814499
 20
-14.211448
 30
0.0
 11
-144.666199
 21
-14.266481
 31
0.0
  0
LINE
  8
0
  6
CONTINUOUS
 62
    15
 10
-144.666199
 20
-14.266481
 30
0.0
 11
-144.52121
 21
-14.363214
 31
0.0
  0
LINE
  8
0
  6
CONTINUOUS
 62
    15
 10
-144.52121
 20
-14.363214
 30
0.0
 11
-144.382828
 21
-14.502498
 31
0.0
  0
LINE
  8
0
  6
CONTINUOUS
 62
    15
 10
-152.244186
 20
-15.191821
 30
0.0
 11
-152.384781
 21
-14.964268
 31
0.0
  0
LINE
  8
0
  6
CONTINUOUS
 62
    15
 10
-152.384781
 20
-14.964268
 30
0.0
 11
-152.455887
 21
-14.762812
 31
0.0
  0
LINE
  8
0
  6
CONTINUOUS
 62
    15
 10
-152.455887
 20
-14.762812
 30
0.0
 11
-152.467468
 21
-14.585468
 31
0.0
  0
LINE
  8
0
  6
CONTINUOUS
 62
    15
 10
-152.467468
 20
-14.585468
 30
0.0
 11
-152.429428
 21
-14.430251
 31
0.0
  0
LINE
  8
0
  6
CONTINUOUS
 62
    15
 10
-152.429428
 20
-14.430251
 30
0.0
 11
-152.3517
 21
-14.295176
 31
0.0
  0
LINE
  8
0
  6
CONTINUOUS
 62
    15
 10
-152.3517
 20
-14.295176
 30
0.0
 11
-152.244186
 21
-14.178255
 31
0.0
  0
LINE
  8
0
  6
CONTINUOUS
 62
    15
 10
-152.244186
 20
-14.178255
 30
0.0
 11
-152.116837
 21
-14.077503
 31
0.0
  0
LINE
  8
0
  6
CONTINUOUS
 62
    15
 10
-152.116837
 20
-14.077503
 30
0.0
 11
-151.979568
 21
-13.990936
 31
0.0
  0
LINE
  8
0
  6
CONTINUOUS
 62
    15
 10
-151.979568
 20
-13.990936
 30
0.0
 11
-151.8423
 21
-13.916568
 31
0.0
  0
LINE
  8
0
  6
CONTINUOUS
 62
    15
 10
-151.8423
 20
-14.330165
 30
0.0
 11
-151.827606
 21
-14.132963
 31
0.0
  0
LINE
  8
0
  6
CONTINUOUS
 62
    15
 10
-151.827606
 20
-14.132963
 30
0.0
 11
-151.784225
 21
-13.957603
 31
0.0
  0
LINE
  8
0
  6
CONTINUOUS
 62
    15
 10
-151.784225
 20
-13.957603
 30
0.0
 11
-151.713303
 21
-13.80806
 31
0.0
  0
LINE
  8
0
  6
CONTINUOUS
 62
    15
 10
-151.713303
 20
-13.80806
 30
0.0
 11
-151.615891
 21
-13.688303
 31
0.0
  0
LINE
  8
0
  6
CONTINUOUS
 62
    15
 10
-151.615891
 20
-13.688303
 30
0.0
 11
-151.493134
 21
-13.602303
 31
0.0
  0
LINE
  8
0
  6
CONTINUOUS
 62
    15
 10
-151.493134
 20
-13.602303
 30
0.0
 11
-151.346115
 21
-13.554031
 31
0.0
  0
LINE
  8
0
  6
CONTINUOUS
 62
    15
 10
-151.346115
 20
-13.554031
 30
0.0
 11
-151.175949
 21
-13.547461
 31
0.0
  0
LINE
  8
0
  6
CONTINUOUS
 62
    15
 10
-151.175949
 20
-13.547461
 30
0.0
 11
-150.983719
 21
-13.586559
 31
0.0
  0
LINE
  8
0
  6
CONTINUOUS
 62
    15
 10
-150.983719
 20
-13.586559
 30
0.0
 11
-150.770554
 21
-13.675303
 31
0.0
  0
LINE
  8
0
  6
CONTINUOUS
 62
    15
 10
-150.904526
 20
-14.088893
 30
0.0
 11
-150.761932
 21
-13.881198
 31
0.0
  0
LINE
  8
0
  6
CONTINUOUS
 62
    15
 10
-150.761932
 20
-13.881198
 30
0.0
 11
-150.607193
 21
-13.719173
 31
0.0
  0
LINE
  8
0
  6
CONTINUOUS
 62
    15
 10
-150.607193
 20
-13.719173
 30
0.0
 11
-150.448059
 21
-13.60509
 31
0.0
  0
LINE
  8
0
  6
CONTINUOUS
 62
    15
 10
-150.448059
 20
-13.60509
 30
0.0
 11
-150.292221
 21
-13.541216
 31
0.0
  0
LINE
  8
0
  6
CONTINUOUS
 62
    15
 10
-150.292221
 20
-13.541216
 30
0.0
 11
-150.147415
 21
-13.529822
 31
0.0
  0
LINE
  8
0
  6
CONTINUOUS
 62
    15
 10
-150.147415
 20
-13.529822
 30
0.0
 11
-150.021362
 21
-13.573176
 31
0.0
  0
LINE
  8
0
  6
CONTINUOUS
 62
    15
 10
-150.021362
 20
-13.573176
 30
0.0
 11
-149.921753
 21
-13.67355
 31
0.0
  0
LINE
  8
0
  6
CONTINUOUS
 62
    15
 10
-149.921753
 20
-13.67355
 30
0.0
 11
-149.856339
 21
-13.833212
 31
0.0
  0
LINE
  8
0
  6
CONTINUOUS
 62
    15
 10
-149.856339
 20
-13.833212
 30
0.0
 11
-149.832809
 21
-14.054431
 31
0.0
  0
LINE
  8
0
  6
CONTINUOUS
 62
    15
 10
-151.17247
 20
-14.709292
 30
0.0
 11
-151.073792
 21
-14.531996
 31
0.0
  0
LINE
  8
0
  6
CONTINUOUS
 62
    15
 10
-151.073792
 20
-14.531996
 30
0.0
 11
-150.958572
 21
-14.391294
 31
0.0
  0
LINE
  8
0
  6
CONTINUOUS
 62
    15
 10
-150.958572
 20
-14.391294
 30
0.0
 11
-150.830109
 21
-14.288036
 31
0.0
  0
LINE
  8
0
  6
CONTINUOUS
 62
    15
 10
-150.830109
 20
-14.288036
 30
0.0
 11
-150.691727
 21
-14.223076
 31
0.0
  0
LINE
  8
0
  6
CONTINUOUS
 62
    15
 10
-150.691727
 20
-14.223076
 30
0.0
 11
-150.546738
 21
-14.197264
 31
0.0
  0
LINE
  8
0
  6
CONTINUOUS
 62
    15
 10
-150.546738
 20
-14.197264
 30
0.0
 11
-150.398453
 21
-14.211448
 31
0.0
  0
LINE
  8
0
  6
CONTINUOUS
 62
    15
 10
-150.398453
 20
-14.211448
 30
0.0
 11
-150.250153
 21
-14.266481
 31
0.0
  0
LINE
  8
0
  6
CONTINUOUS
 62
    15
 10
-150.250153
 20
-14.266481
 30
0.0
 11
-150.105164
 21
-14.363214
 31
0.0
  0
LINE
  8
0
  6
CONTINUOUS
 62
    15
 10
-150.105164
 20
-14.363214
 30
0.0
 11
-149.966782
 21
-14.502498
 31
0.0
  0
LINE
  8
0
  6
CONTINUOUS
 62
    15
 10
-157.82814
 20
-15.191821
 30
0.0
 11
-157.968735
 21
-14.964268
 31
0.0
  0
LINE
  8
0
  6
CONTINUOUS
 62
    15
 10
-157.968735
 20
-14.964268
 30
0.0
 11
-158.039841
 21
-14.762812
 31
0.0
  0
LINE
  8
0
  6
CONTINUOUS
 62
    15
 10
-158.039841
 20
-14.762812
 30
0.0
 11
-158.051422
 21
-14.585468
 31
0.0
  0
LINE
  8
0
  6
CONTINUOUS
 62
    15
 10
-158.051422
 20
-14.585468
 30
0.0
 11
-158.013382
 21
-14.430251
 31
0.0
  0
LINE
  8
0
  6
CONTINUOUS
 62
    15
 10
-158.013382
 20
-14.430251
 30
0.0
 11
-157.935654
 21
-14.295176
 31
0.0
  0
LINE
  8
0
  6
CONTINUOUS
 62
    15
 10
-157.935654
 20
-14.295176
 30
0.0
 11
-157.82814
 21
-14.178255
 31
0.0
  0
LINE
  8
0
  6
CONTINUOUS
 62
    15
 10
-157.82814
 20
-14.178255
 30
0.0
 11
-157.70079
 21
-14.077503
 31
0.0
  0
LINE
  8
0
  6
CONTINUOUS
 62
    15
 10
-157.70079
 20
-14.077503
 30
0.0
 11
-157.563522
 21
-13.990936
 31
0.0
  0
LINE
  8
0
  6
CONTINUOUS
 62
    15
 10
-157.563522
 20
-13.990936
 30
0.0
 11
-157.426254
 21
-13.916568
 31
0.0
  0
LINE
  8
0
  6
CONTINUOUS
 62
    15
 10
-157.426254
 20
-14.330165
 30
0.0
 11
-157.41156
 21
-14.132963
 31
0.0
  0
LINE
  8
0
  6
CONTINUOUS
 62
    15
 10
-157.41156
 20
-14.132963
 30
0.0
 11
-157.368179
 21
-13.957603
 31
0.0
  0
LINE
  8
0
  6
CONTINUOUS
 62
    15
 10
-157.368179
 20
-13.957603
 30
0.0
 11
-157.297256
 21
-13.80806
 31
0.0
  0
LINE
  8
0
  6
CONTINUOUS
 62
    15
 10
-157.297256
 20
-13.80806
 30
0.0
 11
-157.199844
 21
-13.688303
 31
0.0
  0
LINE
  8
0
  6
CONTINUOUS
 62
    15
 10
-157.199844
 20
-13.688303
 30
0.0
 11
-157.077087
 21
-13.602303
 31
0.0
  0
LINE
  8
0
  6
CONTINUOUS
 62
    15
 10
-157.077087
 20
-13.602303
 30
0.0
 11
-156.930069
 21
-13.554031
 31
0.0
  0
LINE
  8
0
  6
CONTINUOUS
 62
    15
 10
-156.930069
 20
-13.554031
 30
0.0
 11
-156.759903
 21
-13.547461
 31
0.0
  0
LINE
  8
0
  6
CONTINUOUS
 62
    15
 10
-156.759903
 20
-13.547461
 30
0.0
 11
-156.567673
 21
-13.586559
 31
0.0
  0
LINE
  8
0
  6
CONTINUOUS
 62
    15
 10
-156.567673
 20
-13.586559
 30
0.0
 11
-156.354507
 21
-13.675303
 31
0.0
  0
LINE
  8
0
  6
CONTINUOUS
 62
    15
 10
-156.48848
 20
-14.088893
 30
0.0
 11
-156.345886
 21
-13.881198
 31
0.0
  0
LINE
  8
0
  6
CONTINUOUS
 62
    15
 10
-156.345886
 20
-13.881198
 30
0.0
 11
-156.191147
 21
-13.719173
 31
0.0
  0
LINE
  8
0
  6
CONTINUOUS
 62
    15
 10
-156.191147
 20
-13.719173
 30
0.0
 11
-156.032013
 21
-13.60509
 31
0.0
  0
LINE
  8
0
  6
CONTINUOUS
 62
    15
 10
-156.032013
 20
-13.60509
 30
0.0
 11
-155.876175
 21
-13.541216
 31
0.0
  0
LINE
  8
0
  6
CONTINUOUS
 62
    15
 10
-155.876175
 20
-13.541216
 30
0.0
 11
-155.731369
 21
-13.529822
 31
0.0
  0
LINE
  8
0
  6
CONTINUOUS
 62
    15
 10
-155.731369
 20
-13.529822
 30
0.0
 11
-155.605316
 21
-13.573176
 31
0.0
  0
LINE
  8
0
  6
CONTINUOUS
 62
    15
 10
-155.605316
 20
-13.573176
 30
0.0
 11
-155.505707
 21
-13.67355
 31
0.0
  0
LINE
  8
0
  6
CONTINUOUS
 62
    15
 10
-155.505707
 20
-13.67355
 30
0.0
 11
-155.440292
 21
-13.833212
 31
0.0
  0
LINE
  8
0
  6
CONTINUOUS
 62
    15
 10
-155.440292
 20
-13.833212
 30
0.0
 11
-155.416763
 21
-14.054431
 31
0.0
  0
LINE
  8
0
  6
CONTINUOUS
 62
    15
 10
-156.756424
 20
-14.709292
 30
0.0
 11
-156.657745
 21
-14.531996
 31
0.0
  0
LINE
  8
0
  6
CONTINUOUS
 62
    15
 10
-156.657745
 20
-14.531996
 30
0.0
 11
-156.542526
 21
-14.391294
 31
0.0
  0
LINE
  8
0
  6
CONTINUOUS
 62
    15
 10
-156.542526
 20
-14.391294
 30
0.0
 11
-156.414062
 21
-14.288036
 31
0.0
  0
LINE
  8
0
  6
CONTINUOUS
 62
    15
 10
-156.414062
 20
-14.288036
 30
0.0
 11
-156.275681
 21
-14.223076
 31
0.0
  0
LINE
  8
0
  6
CONTINUOUS
 62
    15
 10
-156.275681
 20
-14.223076
 30
0.0
 11
-156.130692
 21
-14.197264
 31
0.0
  0
LINE
  8
0
  6
CONTINUOUS
 62
    15
 10
-156.130692
 20
-14.197264
 30
0.0
 11
-155.982407
 21
-14.211448
 31
0.0
  0
LINE
  8
0
  6
CONTINUOUS
 62
    15
 10
-155.982407
 20
-14.211448
 30
0.0
 11
-155.834106
 21
-14.266481
 31
0.0
  0
LINE
  8
0
  6
CONTINUOUS
 62
    15
 10
-155.834106
 20
-14.266481
 30
0.0
 11
-155.689117
 21
-14.363214
 31
0.0
  0
LINE
  8
0
  6
CONTINUOUS
 62
    15
 10
-155.689117
 20
-14.363214
 30
0.0
 11
-155.550735
 21
-14.502498
 31
0.0
  0
POINT
  8
0
  6
CONTINUOUS
 62
    15
 10
-171.482574
 20
-35.71175
 30
0.0
  0
POINT
  8
0
  6
CONTINUOUS
 62
    15
 10
-161.48259
 20
-35.71175
 30
0.0
  0
POINT
  8
0
  6
CONTINUOUS
 62
    15
 10
-166.48259
 20
-35.71175
 30
0.0
  0
POINT
  8
0
  6
CONTINUOUS
 62
    15
 10
-151.48259
 20
-35.71175
 30
0.0
  0
POINT
  8
0
  6
CONTINUOUS
 62
    15
 10
-171.482574
 20
-34.71175
 30
0.0
  0
POINT
  8
0
  6
CONTINUOUS
 62
    15
 10
-161.48259
 20
-34.71175
 30
0.0
  0
POINT
  8
0
  6
CONTINUOUS
 62
    15
 10
-166.48259
 20
-34.71175
 30
0.0
  0
POINT
  8
0
  6
CONTINUOUS
 62
    15
 10
-151.48259
 20
-34.71175
 30
0.0
  0
POINT
  8
0
  6
CONTINUOUS
 62
    15
 10
-171.482574
 20
-33.71175
 30
0.0
  0
POINT
  8
0
  6
CONTINUOUS
 62
    15
 10
-161.48259
 20
-33.71175
 30
0.0
  0
POINT
  8
0
  6
CONTINUOUS
 62
    15
 10
-166.48259
 20
-33.71175
 30
0.0
  0
POINT
  8
0
  6
CONTINUOUS
 62
    15
 10
-151.48259
 20
-33.71175
 30
0.0
  0
LINE
  8
0
  6
CONTINUOUS
 62
    15
 10
-151.48259
 20
-33.71175
 30
0.0
 11
-151.48259
 21
-35.71175
 31
0.0
  0
LINE
  8
0
  6
CONTINUOUS
 62
    15
 10
-171.482574
 20
-35.71175
 30
0.0
 11
-171.482574
 21
-33.71175
 31
0.0
  0
LINE
  8
0
  6
CONTINUOUS
 62
    15
 10
-161.48259
 20
-33.71175
 30
0.0
 11
-161.48259
 21
-35.71175
 31
0.0
  0
LINE
  8
0
  6
CONTINUOUS
 62
    15
 10
-166.48259
 20
-33.71175
 30
0.0
 11
-166.48259
 21
-35.71175
 31
0.0
  0
POINT
  8
0
  6
CONTINUOUS
 62
    15
 10
-176.482574
 20
-35.71175
 30
0.0
  0
POINT
  8
0
  6
CONTINUOUS
 62
    15
 10
-176.482574
 20
-34.71175
 30
0.0
  0
POINT
  8
0
  6
CONTINUOUS
 62
    15
 10
-176.482574
 20
-33.71175
 30
0.0
  0
LINE
  8
0
  6
CONTINUOUS
 62
    15
 10
-176.482574
 20
-33.71175
 30
0.0
 11
-176.482574
 21
-35.71175
 31
0.0
  0
LINE
  8
0
  6
CONTINUOUS
 62
    15
 10
-151.48259
 20
-33.71175
 30
0.0
 11
-176.482574
 21
-33.71175
 31
0.0
  0
LINE
  8
0
  6
CONTINUOUS
 62
    15
 10
-151.48259
 20
-35.71175
 30
0.0
 11
-176.482574
 21
-35.71175
 31
0.0
  0
LINE
  8
0
  6
CONTINUOUS
 62
    15
 10
-175.482574
 20
-33.71175
 30
0.0
 11
-175.482574
 21
-35.71175
 31
0.0
  0
LINE
  8
0
  6
CONTINUOUS
 62
    15
 10
-151.48259
 20
-34.71175
 30
0.0
 11
-176.482574
 21
-34.71175
 31
0.0
  0
LINE
  8
0
  6
CONTINUOUS
 62
    15
 10
-174.482574
 20
-33.71175
 30
0.0
 11
-174.482574
 21
-35.71175
 31
0.0
  0
LINE
  8
0
  6
CONTINUOUS
 62
    15
 10
-173.482574
 20
-33.71175
 30
0.0
 11
-173.482574
 21
-35.71175
 31
0.0
  0
LINE
  8
0
  6
CONTINUOUS
 62
    15
 10
-172.482574
 20
-33.71175
 30
0.0
 11
-172.482574
 21
-35.71175
 31
0.0
  0
TEXT
  8
0
  6
CONTINUOUS
 62
    15
 10
-146.584229
 20
14.527251
 30
0.0
 40
3.0
  1
Through St
 11
-146.584229
 21
14.527251
 31
0.0
  0
TEXT
  8
0
  6
CONTINUOUS
 62
    15
 10
-34.782204
 20
-35.217377
 30
0.0
 40
3.0
  1
Dead End Rd
 11
-34.782204
 21
-35.217377
 31
0.0
  0
TEXT
  8
0
  6
CONTINUOUS
 62
    15
 10
-169.011795
 20
-37.211185
 30
0.0
 40
1.0
  1
DIAGRAM SCALE
 11
-169.011795
 21
-37.211185
 31
0.0
  0
TEXT
  8
0
  6
CONTINUOUS
 62
    15
 10
-176.482574
 20
-33.21175
 30
0.0
 40
1.0
  1
0
 11
-176.482574
 21
-33.21175
 31
0.0
  0
TEXT
  8
0
  6
CONTINUOUS
 62
    15
 10
-171.482574
 20
-33.21175
 30
0.0
 40
1.0
  1
5
 11
-171.482574
 21
-33.21175
 31
0.0
  0
TEXT
  8
0
  6
CONTINUOUS
 62
    15
 10
-166.48259
 20
-33.21175
 30
0.0
 40
1.0
  1
10
 11
-166.48259
 21
-33.21175
 31
0.0
  0
TEXT
  8
0
  6
CONTINUOUS
 62
    15
 10
-161.48259
 20
-33.21175
 30
0.0
 40
1.0
  1
15
 11
-161.48259
 21
-33.21175
 31
0.0
  0
TEXT
  8
0
  6
CONTINUOUS
 62
    15
 10
-141.873947
 20
-44.158482
 30
0.0
 40
3.0
  1
          Whichever Greater
 11
-141.873947
 21
-44.158482
 31
0.0
  0
TEXT
  8
0
  6
CONTINUOUS
 62
    15
 10
-141.873947
 20
-39.658482
 30
0.0
 40
3.0
  1
Accuracy: +- 1 foot or 2%%%
 11
-141.873947
 21
-39.658482
 31
0.0
  0
TEXT
  8
0
  6
CONTINUOUS
 62
    15
 10
-151.48259
 20
-33.21175
 30
0.0
 40
1.0
  1
25
 11
-151.48259
 21
-33.21175
 31
0.0
  0
TEXT
  8
0
  6
CONTINUOUS
 62
    15
 10
-141.873947
 20
-30.658482
 30
0.0
 40
3.0
  1
Location: Through St at
 11
-141.873947
 21
-30.658482
 31
0.0
  0
TEXT
  8
0
  6
CONTINUOUS
 62
    15
 10
-141.873947
 20
-35.158482
 30
0.0
 40
3.0
  1
           Dead End Rd
 11
-141.873947
 21
-35.158482
 31
0.0
  0
LINE
  8
0
  6
CONTINUOUS
 62
    15
 10
-159.999985
 20
-13.499999
 30
0.0
 11
-232.260239
 21
-13.499999
 31
0.0
  0
TEXT
  8
0
  6
CONTINUOUS
 62
    15
 10
-187.562515
 20
-18.903862
 30
0.0
 40
3.0
  1
View Obstruction
 11
-187.562515
 21
-18.903862
 31
0.0
  0
ARC
  8
0
  6
CONTINUOUS
 62
    15
 10
27.999995
 20
-27.999995
 30
0.0
 40
27.999995
 50
89.999995
 51
180.000005
  0
LINE
  8
0
  6
CONTINUOUS
 62
    15
 10
27.999998
 20
0.0
 30
0.0
 11
57.420547
 21
0.0
 31
0.0
  0
ARC
  8
0
  6
CONTINUOUS
 62
    15
 10
-47.999991
 20
-30.999996
 30
0.0
 40
30.999993
 50
359.999985
 51
90.000024
  0
POINT
  8
0
  6
CONTINUOUS
 62
    15
 10
28.999998
 20
4.0
 30
0.0
  0
LINE
  8
0
  6
CONTINUOUS
 62
    15
 10
13.999999
 20
11.332999
 30
0.0
 11
56.677567
 21
11.332999
 31
0.0
  0
LINE
  8
0
  6
CONTINUOUS
 62
    15
 10
13.999999
 20
10.666999
 30
0.0
 11
56.677567
 21
10.666999
 31
0.0
  0
POINT
  8
0
  6
CONTINUOUS
 62
    15
 10
-50.000004
 20
-25.999998
 30
0.0
  0
POINT
  8
0
  6
CONTINUOUS
 62
    15
 10
-60.0
 20
-21.999998
 30
0.0
  0
LINE
  8
0
  6
CONTINUOUS
 62
    15
 10
-50.000004
 20
-25.999998
 30
0.0
 11
-60.0
 21
-21.999998
 31
0.0
  0
LINE
  8
0
  6
CONTINUOUS
 62
    15
 10
-16.999998
 20
-32.007931
 30
0.0
 11
-16.999998
 21
-31.000004
 31
0.0
  0
LINE
  8
0
  6
CONTINUOUS
 62
    15
 10
8.627207
 20
-23.165979
 30
0.0
 11
19.541189
 21
-23.165979
 31
0.0
  0
LINE
  8
0
  6
CONTINUOUS
 62
    15
 10
14.084198
 20
-22.177485
 30
0.0
 11
13.272758
 21
-23.165979
 31
0.0
  0
LINE
  8
0
  6
CONTINUOUS
 62
    15
 10
14.084198
 20
-22.177485
 30
0.0
 11
14.895639
 21
-23.165979
 31
0.0
  0
LINE
  8
0
  6
CONTINUOUS
 62
    15
 10
-52.347908
 20
-26.581264
 30
0.0
 11
-52.242428
 21
-26.790663
 31
0.0
  0
LINE
  8
0
  6
CONTINUOUS
 62
    15
 10
-52.242428
 20
-26.790663
 30
0.0
 11
-52.18877
 21
-26.982473
 31
0.0
  0
LINE
  8
0
  6
CONTINUOUS
 62
    15
 10
-52.18877
 20
-26.982473
 30
0.0
 11
-52.179218
 21
-27.156981
 31
0.0
  0
LINE
  8
0
  6
CONTINUOUS
 62
    15
 10
-52.179218
 20
-27.156981
 30
0.0
 11
-52.206047
 21
-27.314466
 31
0.0
  0
LINE
  8
0
  6
CONTINUOUS
 62
    15
 10
-52.206047
 20
-27.314466
 30
0.0
 11
-52.261543
 21
-27.455215
 31
0.0
  0
LINE
  8
0
  6
CONTINUOUS
 62
    15
 10
-52.261543
 20
-27.455215
 30
0.0
 11
-52.33799
 21
-27.579512
 31
0.0
  0
LINE
  8
0
  6
CONTINUOUS
 62
    15
 10
-52.33799
 20
-27.579512
 30
0.0
 11
-52.42767
 21
-27.687637
 31
0.0
  0
LINE
  8
0
  6
CONTINUOUS
 62
    15
 10
-52.42767
 20
-27.687637
 30
0.0
 11
-52.522865
 21
-27.779881
 31
0.0
  0
LINE
  8
0
  6
CONTINUOUS
 62
    15
 10
-52.522865
 20
-27.779881
 30
0.0
 11
-52.615852
 21
-27.856518
 31
0.0
  0
LINE
  8
0
  6
CONTINUOUS
 62
    15
 10
-53.553596
 20
-26.202129
 30
0.0
 11
-53.410995
 21
-25.994434
 31
0.0
  0
LINE
  8
0
  6
CONTINUOUS
 62
    15
 10
-53.410995
 20
-25.994434
 30
0.0
 11
-53.256268
 21
-25.832409
 31
0.0
  0
LINE
  8
0
  6
CONTINUOUS
 62
    15
 10
-53.256268
 20
-25.832409
 30
0.0
 11
-53.09713
 21
-25.718327
 31
0.0
  0
LINE
  8
0
  6
CONTINUOUS
 62
    15
 10
-53.09713
 20
-25.718327
 30
0.0
 11
-52.941296
 21
-25.654453
 31
0.0
  0
LINE
  8
0
  6
CONTINUOUS
 62
    15
 10
-52.941296
 20
-25.654453
 30
0.0
 11
-52.796486
 21
-25.643057
 31
0.0
  0
LINE
  8
0
  6
CONTINUOUS
 62
    15
 10
-52.796486
 20
-25.643057
 30
0.0
 11
-52.670422
 21
-25.686413
 31
0.0
  0
LINE
  8
0
  6
CONTINUOUS
 62
    15
 10
-52.670422
 20
-25.686413
 30
0.0
 11
-52.570824
 21
-25.786787
 31
0.0
  0
LINE
  8
0
  6
CONTINUOUS
 62
    15
 10
-52.570824
 20
-25.786787
 30
0.0
 11
-52.505405
 21
-25.946447
 31
0.0
  0
LINE
  8
0
  6
CONTINUOUS
 62
    15
 10
-52.505405
 20
-25.946447
 30
0.0
 11
-52.48188
 21
-26.167667
 31
0.0
  0
LINE
  8
0
  6
CONTINUOUS
 62
    15
 10
-53.821541
 20
-26.822529
 30
0.0
 11
-53.722855
 21
-26.645231
 31
0.0
  0
LINE
  8
0
  6
CONTINUOUS
 62
    15
 10
-53.722855
 20
-26.645231
 30
0.0
 11
-53.607632
 21
-26.50453
 31
0.0
  0
LINE
  8
0
  6
CONTINUOUS
 62
    15
 10
-53.607632
 20
-26.50453
 30
0.0
 11
-53.479172
 21
-26.401274
 31
0.0
  0
LINE
  8
0
  6
CONTINUOUS
 62
    15
 10
-53.479172
 20
-26.401274
 30
0.0
 11
-53.340801
 21
-26.336313
 31
0.0
  0
LINE
  8
0
  6
CONTINUOUS
 62
    15
 10
-53.340801
 20
-26.336313
 30
0.0
 11
-53.195808
 21
-26.310499
 31
0.0
  0
LINE
  8
0
  6
CONTINUOUS
 62
    15
 10
-53.195808
 20
-26.310499
 30
0.0
 11
-53.047512
 21
-26.324682
 31
0.0
  0
LINE
  8
0
  6
CONTINUOUS
 62
    15
 10
-53.047512
 20
-26.324682
 30
0.0
 11
-52.899212
 21
-26.379717
 31
0.0
  0
LINE
  8
0
  6
CONTINUOUS
 62
    15
 10
-52.899212
 20
-26.379717
 30
0.0
 11
-52.754223
 21
-26.47645
 31
0.0
  0
LINE
  8
0
  6
CONTINUOUS
 62
    15
 10
-52.754223
 20
-26.47645
 30
0.0
 11
-52.615852
 21
-26.615734
 31
0.0
  0
LINE
  8
0
  6
CONTINUOUS
 62
    15
 10
-56.446896
 20
-24.524385
 30
0.0
 11
-56.341415
 21
-24.733784
 31
0.0
  0
LINE
  8
0
  6
CONTINUOUS
 62
    15
 10
-56.341415
 20
-24.733784
 30
0.0
 11
-56.287758
 21
-24.925594
 31
0.0
  0
LINE
  8
0
  6
CONTINUOUS
 62
    15
 10
-56.287758
 20
-24.925594
 30
0.0
 11
-56.278206
 21
-25.100101
 31
0.0
  0
LINE
  8
0
  6
CONTINUOUS
 62
    15
 10
-56.278206
 20
-25.100101
 30
0.0
 11
-56.305035
 21
-25.257587
 31
0.0
  0
LINE
  8
0
  6
CONTINUOUS
 62
    15
 10
-56.305035
 20
-25.257587
 30
0.0
 11
-56.360531
 21
-25.398336
 31
0.0
  0
LINE
  8
0
  6
CONTINUOUS
 62
    15
 10
-56.360531
 20
-25.398336
 30
0.0
 11
-56.436977
 21
-25.522633
 31
0.0
  0
LINE
  8
0
  6
CONTINUOUS
 62
    15
 10
-56.436977
 20
-25.522633
 30
0.0
 11
-56.526657
 21
-25.630758
 31
0.0
  0
LINE
  8
0
  6
CONTINUOUS
 62
    15
 10
-56.526657
 20
-25.630758
 30
0.0
 11
-56.621853
 21
-25.723001
 31
0.0
  0
LINE
  8
0
  6
CONTINUOUS
 62
    15
 10
-56.621853
 20
-25.723001
 30
0.0
 11
-56.71484
 21
-25.799639
 31
0.0
  0
LINE
  8
0
  6
CONTINUOUS
 62
    15
 10
-57.652584
 20
-24.14525
 30
0.0
 11
-57.509987
 21
-23.937555
 31
0.0
  0
LINE
  8
0
  6
CONTINUOUS
 62
    15
 10
-57.509987
 20
-23.937555
 30
0.0
 11
-57.355255
 21
-23.77553
 31
0.0
  0
LINE
  8
0
  6
CONTINUOUS
 62
    15
 10
-57.355255
 20
-23.77553
 30
0.0
 11
-57.196117
 21
-23.661448
 31
0.0
  0
LINE
  8
0
  6
CONTINUOUS
 62
    15
 10
-57.196117
 20
-23.661448
 30
0.0
 11
-57.040283
 21
-23.597574
 31
0.0
  0
LINE
  8
0
  6
CONTINUOUS
 62
    15
 10
-57.040283
 20
-23.597574
 30
0.0
 11
-56.895473
 21
-23.586178
 31
0.0
  0
LINE
  8
0
  6
CONTINUOUS
 62
    15
 10
-56.895473
 20
-23.586178
 30
0.0
 11
-56.769409
 21
-23.629534
 31
0.0
  0
LINE
  8
0
  6
CONTINUOUS
 62
    15
 10
-56.769409
 20
-23.629534
 30
0.0
 11
-56.669811
 21
-23.729908
 31
0.0
  0
LINE
  8
0
  6
CONTINUOUS
 62
    15
 10
-56.669811
 20
-23.729908
 30
0.0
 11
-56.604393
 21
-23.889568
 31
0.0
  0
LINE
  8
0
  6
CONTINUOUS
 62
    15
 10
-56.604393
 20
-23.889568
 30
0.0
 11
-56.580868
 21
-24.110788
 31
0.0
  0
LINE
  8
0
  6
CONTINUOUS
 62
    15
 10
-57.920528
 20
-24.76565
 30
0.0
 11
-57.821838
 21
-24.588352
 31
0.0
  0
LINE
  8
0
  6
CONTINUOUS
 62
    15
 10
-57.821838
 20
-24.588352
 30
0.0
 11
-57.706619
 21
-24.447651
 31
0.0
  0
LINE
  8
0
  6
CONTINUOUS
 62
    15
 10
-57.706619
 20
-24.447651
 30
0.0
 11
-57.578163
 21
-24.344395
 31
0.0
  0
LINE
  8
0
  6
CONTINUOUS
 62
    15
 10
-57.578163
 20
-24.344395
 30
0.0
 11
-57.439789
 21
-24.279432
 31
0.0
  0
LINE
  8
0
  6
CONTINUOUS
 62
    15
 10
-57.439789
 20
-24.279432
 30
0.0
 11
-57.294796
 21
-24.25362
 31
0.0
  0
LINE
  8
0
  6
CONTINUOUS
 62
    15
 10
-57.294796
 20
-24.25362
 30
0.0
 11
-57.1465
 21
-24.267803
 31
0.0
  0
LINE
  8
0
  6
CONTINUOUS
 62
    15
 10
-57.1465
 20
-24.267803
 30
0.0
 11
-56.998199
 21
-24.322836
 31
0.0
  0
LINE
  8
0
  6
CONTINUOUS
 62
    15
 10
-56.998199
 20
-24.322836
 30
0.0
 11
-56.85321
 21
-24.419569
 31
0.0
  0
LINE
  8
0
  6
CONTINUOUS
 62
    15
 10
-56.85321
 20
-24.419569
 30
0.0
 11
-56.71484
 21
-24.558855
 31
0.0
  0
LINE
  8
0
  6
CONTINUOUS
 62
    15
 10
-59.797256
 20
-23.087763
 30
0.0
 11
-59.69178
 21
-23.297161
 31
0.0
  0
LINE
  8
0
  6
CONTINUOUS
 62
    15
 10
-59.69178
 20
-23.297161
 30
0.0
 11
-59.638119
 21
-23.488972
 31
0.0
  0
LINE
  8
0
  6
CONTINUOUS
 62
    15
 10
-59.638119
 20
-23.488972
 30
0.0
 11
-59.628567
 21
-23.663479
 31
0.0
  0
LINE
  8
0
  6
CONTINUOUS
 62
    15
 10
-59.628567
 20
-23.663479
 30
0.0
 11
-59.655396
 21
-23.820965
 31
0.0
  0
LINE
  8
0
  6
CONTINUOUS
 62
    15
 10
-59.655396
 20
-23.820965
 30
0.0
 11
-59.710892
 21
-23.961714
 31
0.0
  0
LINE
  8
0
  6
CONTINUOUS
 62
    15
 10
-59.710892
 20
-23.961714
 30
0.0
 11
-59.787338
 21
-24.08601
 31
0.0
  0
LINE
  8
0
  6
CONTINUOUS
 62
    15
 10
-59.787338
 20
-24.08601
 30
0.0
 11
-59.877022
 21
-24.194136
 31
0.0
  0
LINE
  8
0
  6
CONTINUOUS
 62
    15
 10
-59.877022
 20
-24.194136
 30
0.0
 11
-59.972214
 21
-24.286379
 31
0.0
  0
LINE
  8
0
  6
CONTINUOUS
 62
    15
 10
-59.972214
 20
-24.286379
 30
0.0
 11
-60.065201
 21
-24.363016
 31
0.0
  0
LINE
  8
0
  6
CONTINUOUS
 62
    15
 10
-61.002945
 20
-22.708628
 30
0.0
 11
-60.860348
 21
-22.500933
 31
0.0
  0
LINE
  8
0
  6
CONTINUOUS
 62
    15
 10
-60.860348
 20
-22.500933
 30
0.0
 11
-60.70562
 21
-22.338907
 31
0.0
  0
LINE
  8
0
  6
CONTINUOUS
 62
    15
 10
-60.70562
 20
-22.338907
 30
0.0
 11
-60.546478
 21
-22.224825
 31
0.0
  0
LINE
  8
0
  6
CONTINUOUS
 62
    15
 10
-60.546478
 20
-22.224825
 30
0.0
 11
-60.390648
 21
-22.160952
 31
0.0
  0
LINE
  8
0
  6
CONTINUOUS
 62
    15
 10
-60.390648
 20
-22.160952
 30
0.0
 11
-60.245834
 21
-22.149555
 31
0.0
  0
LINE
  8
0
  6
CONTINUOUS
 62
    15
 10
-60.245834
 20
-22.149555
 30
0.0
 11
-60.119774
 21
-22.192911
 31
0.0
  0
LINE
  8
0
  6
CONTINUOUS
 62
    15
 10
-60.119774
 20
-22.192911
 30
0.0
 11
-60.020172
 21
-22.293285
 31
0.0
  0
LINE
  8
0
  6
CONTINUOUS
 62
    15
 10
-60.020172
 20
-22.293285
 30
0.0
 11
-59.954754
 21
-22.452946
 31
0.0
  0
LINE
  8
0
  6
CONTINUOUS
 62
    15
 10
-59.954754
 20
-22.452946
 30
0.0
 11
-59.931229
 21
-22.674166
 31
0.0
  0
LINE
  8
0
  6
CONTINUOUS
 62
    15
 10
-61.270889
 20
-23.329027
 30
0.0
 11
-61.172207
 21
-23.15173
 31
0.0
  0
LINE
  8
0
  6
CONTINUOUS
 62
    15
 10
-61.172207
 20
-23.15173
 30
0.0
 11
-61.056984
 21
-23.011028
 31
0.0
  0
LINE
  8
0
  6
CONTINUOUS
 62
    15
 10
-61.056984
 20
-23.011028
 30
0.0
 11
-60.928524
 21
-22.907772
 31
0.0
  0
LINE
  8
0
  6
CONTINUOUS
 62
    15
 10
-60.928524
 20
-22.907772
 30
0.0
 11
-60.790154
 21
-22.84281
 31
0.0
  0
LINE
  8
0
  6
CONTINUOUS
 62
    15
 10
-60.790154
 20
-22.84281
 30
0.0
 11
-60.645157
 21
-22.816998
 31
0.0
  0
LINE
  8
0
  6
CONTINUOUS
 62
    15
 10
-60.645157
 20
-22.816998
 30
0.0
 11
-60.496864
 21
-22.831181
 31
0.0
  0
LINE
  8
0
  6
CONTINUOUS
 62
    15
 10
-60.496864
 20
-22.831181
 30
0.0
 11
-60.348564
 21
-22.886213
 31
0.0
  0
LINE
  8
0
  6
CONTINUOUS
 62
    15
 10
-60.348564
 20
-22.886213
 30
0.0
 11
-60.203575
 21
-22.982946
 31
0.0
  0
LINE
  8
0
  6
CONTINUOUS
 62
    15
 10
-60.203575
 20
-22.982946
 30
0.0
 11
-60.065201
 21
-23.122232
 31
0.0
  0
LINE
  8
0
  6
CONTINUOUS
 62
    15
 10
-64.07412
 20
-21.846653
 30
0.0
 11
-63.931526
 21
-21.638958
 31
0.0
  0
LINE
  8
0
  6
CONTINUOUS
 62
    15
 10
-63.931526
 20
-21.638958
 30
0.0
 11
-63.776794
 21
-21.476933
 31
0.0
  0
LINE
  8
0
  6
CONTINUOUS
 62
    15
 10
-63.776794
 20
-21.476933
 30
0.0
 11
-63.617657
 21
-21.36285
 31
0.0
  0
LINE
  8
0
  6
CONTINUOUS
 62
    15
 10
-63.617657
 20
-21.36285
 30
0.0
 11
-63.461823
 21
-21.298975
 31
0.0
  0
LINE
  8
0
  6
CONTINUOUS
 62
    15
 10
-63.461823
 20
-21.298975
 30
0.0
 11
-63.317013
 21
-21.287582
 31
0.0
  0
LINE
  8
0
  6
CONTINUOUS
 62
    15
 10
-63.317013
 20
-21.287582
 30
0.0
 11
-63.190948
 21
-21.330936
 31
0.0
  0
LINE
  8
0
  6
CONTINUOUS
 62
    15
 10
-63.190948
 20
-21.330936
 30
0.0
 11
-63.091351
 21
-21.431311
 31
0.0
  0
LINE
  8
0
  6
CONTINUOUS
 62
    15
 10
-63.091351
 20
-21.431311
 30
0.0
 11
-63.025932
 21
-21.590971
 31
0.0
  0
LINE
  8
0
  6
CONTINUOUS
 62
    15
 10
-63.025932
 20
-21.590971
 30
0.0
 11
-63.002407
 21
-21.812191
 31
0.0
  0
LINE
  8
0
  6
CONTINUOUS
 62
    15
 10
-64.342064
 20
-22.467052
 30
0.0
 11
-64.243385
 21
-22.289755
 31
0.0
  0
LINE
  8
0
  6
CONTINUOUS
 62
    15
 10
-64.243385
 20
-22.289755
 30
0.0
 11
-64.128159
 21
-22.149054
 31
0.0
  0
LINE
  8
0
  6
CONTINUOUS
 62
    15
 10
-64.128159
 20
-22.149054
 30
0.0
 11
-63.999702
 21
-22.045797
 31
0.0
  0
LINE
  8
0
  6
CONTINUOUS
 62
    15
 10
-63.999702
 20
-22.045797
 30
0.0
 11
-63.861328
 21
-21.980837
 31
0.0
  0
LINE
  8
0
  6
CONTINUOUS
 62
    15
 10
-63.861328
 20
-21.980837
 30
0.0
 11
-63.716335
 21
-21.955023
 31
0.0
  0
LINE
  8
0
  6
CONTINUOUS
 62
    15
 10
-63.716335
 20
-21.955023
 30
0.0
 11
-63.568039
 21
-21.969206
 31
0.0
  0
LINE
  8
0
  6
CONTINUOUS
 62
    15
 10
-63.568039
 20
-21.969206
 30
0.0
 11
-63.419739
 21
-22.02424
 31
0.0
  0
LINE
  8
0
  6
CONTINUOUS
 62
    15
 10
-63.419739
 20
-22.02424
 30
0.0
 11
-63.27475
 21
-22.120974
 31
0.0
  0
LINE
  8
0
  6
CONTINUOUS
 62
    15
 10
-63.27475
 20
-22.120974
 30
0.0
 11
-63.136379
 21
-22.260258
 31
0.0
  0
POINT
  8
0
  6
CONTINUOUS
 62
    15
 10
48.999996
 20
32.999996
 30
0.0
  0
CIRCLE
  8
0
  6
CONTINUOUS
 62
    15
 10
48.999996
 20
32.999996
 30
0.0
 40
0.664757
  0
POINT
  8
0
  6
CONTINUOUS
 62
    15
 10
36.999996
 20
25.999998
 30
0.0
  0
LINE
  8
0
  6
CONTINUOUS
 62
    15
 10
32.532494
 20
9.482588
 30
0.0
 11
33.05518
 21
9.33674
 31
0.0
  0
LINE
  8
0
  6
CONTINUOUS
 62
    15
 10
33.05518
 20
9.33674
 30
0.0
 11
35.104118
 21
7.792751
 31
0.0
  0
LINE
  8
0
  6
CONTINUOUS
 62
    15
 10
37.437328
 20
5.786529
 30
0.0
 11
37.153057
 21
6.248764
 31
0.0
  0
LINE
  8
0
  6
CONTINUOUS
 62
    15
 10
37.153057
 20
6.248764
 30
0.0
 11
35.104118
 21
7.792751
 31
0.0
  0
LINE
  8
0
  6
CONTINUOUS
 62
    15
 10
30.641926
 20
6.628085
 30
0.0
 11
31.455816
 21
7.329526
 31
0.0
  0
LINE
  8
0
  6
CONTINUOUS
 62
    15
 10
31.455816
 20
7.329526
 30
0.0
 11
32.701736
 21
8.982919
 31
0.0
  0
LINE
  8
0
  6
CONTINUOUS
 62
    15
 10
32.701736
 20
8.982919
 30
0.0
 11
32.460152
 21
9.040954
 31
0.0
  0
LINE
  8
0
  6
CONTINUOUS
 62
    15
 10
32.460152
 20
9.040954
 30
0.0
 11
30.641926
 21
6.628085
 31
0.0
  0
LINE
  8
0
  6
CONTINUOUS
 62
    15
 10
32.749386
 20
4.667915
 30
0.0
 11
33.19241
 21
4.334071
 31
0.0
  0
LINE
  8
0
  6
CONTINUOUS
 62
    15
 10
33.19241
 20
4.334071
 30
0.0
 11
34.203281
 21
3.683955
 31
0.0
  0
LINE
  8
0
  6
CONTINUOUS
 62
    15
 10
34.203281
 20
3.683955
 30
0.0
 11
34.917557
 21
3.282153
 31
0.0
  0
LINE
  8
0
  6
CONTINUOUS
 62
    15
 10
34.917557
 20
3.282153
 30
0.0
 11
35.05629
 21
3.301622
 31
0.0
  0
LINE
  8
0
  6
CONTINUOUS
 62
    15
 10
35.05629
 20
3.301622
 30
0.0
 11
35.498226
 21
4.233726
 31
0.0
  0
LINE
  8
0
  6
CONTINUOUS
 62
    15
 10
35.498226
 20
4.233726
 30
0.0
 11
35.486656
 21
4.366508
 31
0.0
  0
LINE
  8
0
  6
CONTINUOUS
 62
    15
 10
35.486656
 20
4.366508
 30
0.0
 11
34.388371
 21
4.933619
 31
0.0
  0
LINE
  8
0
  6
CONTINUOUS
 62
    15
 10
34.388371
 20
4.933619
 30
0.0
 11
33.456596
 21
5.524132
 31
0.0
  0
LINE
  8
0
  6
CONTINUOUS
 62
    15
 10
33.456596
 20
5.524132
 30
0.0
 11
33.417049
 21
5.553934
 31
0.0
  0
LINE
  8
0
  6
CONTINUOUS
 62
    15
 10
35.318729
 20
8.077551
 30
0.0
 11
37.4468
 21
6.473936
 31
0.0
  0
LINE
  8
0
  6
CONTINUOUS
 62
    15
 10
35.318729
 20
8.077551
 30
0.0
 11
33.182766
 21
9.687118
 31
0.0
  0
LINE
  8
0
  6
CONTINUOUS
 62
    15
 10
35.214516
 20
3.18239
 30
0.0
 11
35.664478
 21
4.158072
 31
0.0
  0
LINE
  8
0
  6
CONTINUOUS
 62
    15
 10
35.664478
 20
4.158072
 30
0.0
 11
36.910397
 21
5.811464
 31
0.0
  0
LINE
  8
0
  6
CONTINUOUS
 62
    15
 10
36.910397
 20
5.811464
 30
0.0
 11
37.032742
 21
5.59526
 31
0.0
  0
LINE
  8
0
  6
CONTINUOUS
 62
    15
 10
37.032742
 20
5.59526
 30
0.0
 11
35.214516
 21
3.18239
 31
0.0
  0
LINE
  8
0
  6
CONTINUOUS
 62
    15
 10
32.570549
 20
4.430593
 30
0.0
 11
33.171803
 21
3.977517
 31
0.0
  0
LINE
  8
0
  6
CONTINUOUS
 62
    15
 10
33.171803
 20
3.977517
 30
0.0
 11
33.953247
 21
3.500286
 31
0.0
  0
LINE
  8
0
  6
CONTINUOUS
 62
    15
 10
33.953247
 20
3.500286
 30
0.0
 11
34.645756
 21
3.102456
 31
0.0
  0
LINE
  8
0
  6
CONTINUOUS
 62
    15
 10
34.645756
 20
3.102456
 30
0.0
 11
34.811878
 21
2.977273
 31
0.0
  0
LINE
  8
0
  6
CONTINUOUS
 62
    15
 10
34.811878
 20
2.977273
 30
0.0
 11
34.839298
 21
2.832598
 31
0.0
  0
LINE
  8
0
  6
CONTINUOUS
 62
    15
 10
32.749386
 20
4.667915
 30
0.0
 11
32.306358
 21
5.001759
 31
0.0
  0
LINE
  8
0
  6
CONTINUOUS
 62
    15
 10
32.306358
 20
5.001759
 30
0.0
 11
31.386969
 21
5.806201
 31
0.0
  0
LINE
  8
0
  6
CONTINUOUS
 62
    15
 10
31.386969
 20
5.806201
 30
0.0
 11
30.819677
 21
6.370128
 31
0.0
  0
LINE
  8
0
  6
CONTINUOUS
 62
    15
 10
30.819677
 20
6.370128
 30
0.0
 11
30.792255
 21
6.514803
 31
0.0
  0
LINE
  8
0
  6
CONTINUOUS
 62
    15
 10
30.792255
 20
6.514803
 30
0.0
 11
31.558538
 21
7.202494
 31
0.0
  0
LINE
  8
0
  6
CONTINUOUS
 62
    15
 10
31.558538
 20
7.202494
 30
0.0
 11
31.705193
 21
7.216044
 31
0.0
  0
LINE
  8
0
  6
CONTINUOUS
 62
    15
 10
31.705193
 20
7.216044
 30
0.0
 11
32.545101
 21
6.322623
 31
0.0
  0
LINE
  8
0
  6
CONTINUOUS
 62
    15
 10
32.545101
 20
6.322623
 30
0.0
 11
33.369572
 21
5.589711
 31
0.0
  0
LINE
  8
0
  6
CONTINUOUS
 62
    15
 10
33.369572
 20
5.589711
 30
0.0
 11
33.417049
 21
5.553934
 31
0.0
  0
LINE
  8
0
  6
CONTINUOUS
 62
    15
 10
32.570549
 20
4.430593
 30
0.0
 11
31.96933
 21
4.883644
 31
0.0
  0
LINE
  8
0
  6
CONTINUOUS
 62
    15
 10
31.96933
 20
4.883644
 30
0.0
 11
31.295158
 21
5.503299
 31
0.0
  0
LINE
  8
0
  6
CONTINUOUS
 62
    15
 10
31.295158
 20
5.503299
 30
0.0
 11
30.706066
 21
6.071224
 31
0.0
  0
LINE
  8
0
  6
CONTINUOUS
 62
    15
 10
30.706066
 20
6.071224
 30
0.0
 11
30.54784
 21
6.190455
 31
0.0
  0
LINE
  8
0
  6
CONTINUOUS
 62
    15
 10
30.54784
 20
6.190455
 30
0.0
 11
30.409107
 21
6.170987
 31
0.0
  0
LINE
  8
0
  6
CONTINUOUS
 62
    15
 10
37.50853
 20
5.732875
 30
0.0
 11
37.437328
 21
5.786529
 31
0.0
  0
LINE
  8
0
  6
CONTINUOUS
 62
    15
 10
29.965528
 20
6.257175
 30
0.0
 11
32.445469
 21
9.548166
 31
0.0
  0
LINE
  8
0
  6
CONTINUOUS
 62
    15
 10
32.445469
 20
9.548166
 30
0.0
 11
32.532494
 21
9.482588
 31
0.0
  0
LINE
  8
0
  6
CONTINUOUS
 62
    15
 10
34.95739
 20
2.495537
 30
0.0
 11
35.028591
 21
2.441884
 31
0.0
  0
LINE
  8
0
  6
CONTINUOUS
 62
    15
 10
35.028591
 20
2.441884
 30
0.0
 11
37.50853
 21
5.732875
 31
0.0
  0
LINE
  8
0
  6
CONTINUOUS
 62
    15
 10
37.366039
 20
5.691924
 30
0.0
 11
34.95739
 21
2.495537
 31
0.0
  0
LINE
  8
0
  6
CONTINUOUS
 62
    15
 10
32.481682
 20
9.415157
 30
0.0
 11
30.052555
 21
6.191596
 31
0.0
  0
LINE
  8
0
  6
CONTINUOUS
 62
    15
 10
38.891071
 20
8.209478
 30
0.0
 11
38.84412
 21
8.492879
 31
0.0
  0
LINE
  8
0
  6
CONTINUOUS
 62
    15
 10
38.84412
 20
8.492879
 30
0.0
 11
38.935986
 21
8.795788
 31
0.0
  0
LINE
  8
0
  6
CONTINUOUS
 62
    15
 10
38.935986
 20
8.795788
 30
0.0
 11
39.973293
 21
10.172342
 31
0.0
  0
LINE
  8
0
  6
CONTINUOUS
 62
    15
 10
39.973293
 20
10.172342
 30
0.0
 11
40.239101
 21
10.344077
 31
0.0
  0
LINE
  8
0
  6
CONTINUOUS
 62
    15
 10
40.239101
 20
10.344077
 30
0.0
 11
40.470833
 21
10.305897
 31
0.0
  0
LINE
  8
0
  6
CONTINUOUS
 62
    15
 10
34.46088
 20
11.547868
 30
0.0
 11
34.746239
 21
11.580853
 31
0.0
  0
LINE
  8
0
  6
CONTINUOUS
 62
    15
 10
34.746239
 20
11.580853
 30
0.0
 11
34.9963
 21
11.764556
 31
0.0
  0
LINE
  8
0
  6
CONTINUOUS
 62
    15
 10
34.9963
 20
11.764556
 30
0.0
 11
36.033607
 21
13.14111
 31
0.0
  0
LINE
  8
0
  6
CONTINUOUS
 62
    15
 10
36.033607
 20
13.14111
 30
0.0
 11
36.141216
 21
13.432053
 31
0.0
  0
LINE
  8
0
  6
CONTINUOUS
 62
    15
 10
36.141216
 20
13.432053
 30
0.0
 11
36.040642
 21
13.644286
 31
0.0
  0
LINE
  8
0
  6
CONTINUOUS
 62
    15
 10
38.643085
 20
14.151504
 30
0.0
 11
38.040977
 21
13.352478
 31
0.0
  0
LINE
  8
0
  6
CONTINUOUS
 62
    15
 10
37.372753
 20
11.362959
 30
0.0
 11
36.168537
 21
9.764909
 31
0.0
  0
LINE
  8
0
  6
CONTINUOUS
 62
    15
 10
37.429646
 20
15.487556
 30
0.0
 11
37.298843
 21
15.462111
 31
0.0
  0
LINE
  8
0
  6
CONTINUOUS
 62
    15
 10
37.298843
 20
15.462111
 30
0.0
 11
36.947887
 21
15.34201
 31
0.0
  0
LINE
  8
0
  6
CONTINUOUS
 62
    15
 10
38.884003
 20
7.706327
 30
0.0
 11
39.318798
 21
8.135183
 31
0.0
  0
LINE
  8
0
  6
CONTINUOUS
 62
    15
 10
40.534966
 20
9.749093
 30
0.0
 11
40.887016
 21
10.364416
 31
0.0
  0
LINE
  8
0
  6
CONTINUOUS
 62
    15
 10
40.241104
 20
12.94731
 30
0.0
 11
39.638996
 21
12.148286
 31
0.0
  0
LINE
  8
0
  6
CONTINUOUS
 62
    15
 10
37.902805
 20
10.963536
 30
0.0
 11
36.698589
 21
9.365485
 31
0.0
  0
LINE
  8
0
  6
CONTINUOUS
 62
    15
 10
41.859837
 20
12.149167
 30
0.0
 11
41.871433
 21
12.016418
 31
0.0
  0
LINE
  8
0
  6
CONTINUOUS
 62
    15
 10
41.871433
 20
12.016418
 30
0.0
 11
41.852718
 21
11.645951
 31
0.0
  0
LINE
  8
0
  6
CONTINUOUS
 62
    15
 10
33.979168
 20
11.402387
 30
0.0
 11
34.255737
 21
11.950475
 31
0.0
  0
LINE
  8
0
  6
CONTINUOUS
 62
    15
 10
34.255737
 20
11.950475
 30
0.0
 11
35.471905
 21
13.564384
 31
0.0
  0
LINE
  8
0
  6
CONTINUOUS
 62
    15
 10
35.471905
 20
13.564384
 30
0.0
 11
35.982182
 21
14.060474
 31
0.0
  0
LINE
  8
0
  6
CONTINUOUS
 62
    15
 10
35.982182
 20
14.060474
 30
0.0
 11
37.311531
 21
15.824584
 31
0.0
  0
LINE
  8
0
  6
CONTINUOUS
 62
    15
 10
37.311531
 20
15.824584
 30
0.0
 11
37.602886
 21
15.865589
 31
0.0
  0
LINE
  8
0
  6
CONTINUOUS
 62
    15
 10
37.602886
 20
15.865589
 30
0.0
 11
39.889179
 21
14.142742
 31
0.0
  0
LINE
  8
0
  6
CONTINUOUS
 62
    15
 10
39.318798
 20
8.135183
 30
0.0
 11
40.534966
 21
9.749093
 31
0.0
  0
LINE
  8
0
  6
CONTINUOUS
 62
    15
 10
40.887016
 20
10.364416
 30
0.0
 11
42.216366
 21
12.128524
 31
0.0
  0
LINE
  8
0
  6
CONTINUOUS
 62
    15
 10
42.216366
 20
12.128524
 30
0.0
 11
42.175476
 21
12.419894
 31
0.0
  0
LINE
  8
0
  6
CONTINUOUS
 62
    15
 10
42.175476
 20
12.419894
 30
0.0
 11
39.889179
 21
14.142742
 31
0.0
  0
LINE
  8
0
  6
CONTINUOUS
 62
    15
 10
39.644741
 20
13.818361
 30
0.0
 11
37.429646
 21
15.487556
 31
0.0
  0
LINE
  8
0
  6
CONTINUOUS
 62
    15
 10
39.644741
 20
13.818361
 30
0.0
 11
41.859837
 21
12.149167
 31
0.0
  0
LINE
  8
0
  6
CONTINUOUS
 62
    15
 10
36.582897
 20
4.652659
 30
0.0
 11
38.884003
 21
7.706327
 31
0.0
  0
LINE
  8
0
  6
CONTINUOUS
 62
    15
 10
31.678061
 20
8.348718
 30
0.0
 11
33.979168
 21
11.402387
 31
0.0
  0
LINE
  8
0
  6
CONTINUOUS
 62
    15
 10
37.242134
 20
12.292376
 30
0.0
 11
35.229786
 21
9.621903
 31
0.0
  0
LINE
  8
0
  6
CONTINUOUS
 62
    15
 10
37.111477
 20
13.221816
 30
0.0
 11
34.524166
 21
9.788336
 31
0.0
  0
LINE
  8
0
  6
CONTINUOUS
 62
    15
 10
37.582985
 20
14.95035
 30
0.0
 11
33.740513
 21
9.851218
 31
0.0
  0
LINE
  8
0
  6
CONTINUOUS
 62
    15
 10
38.840153
 20
11.088182
 30
0.0
 11
36.905838
 21
8.521262
 31
0.0
  0
LINE
  8
0
  6
CONTINUOUS
 62
    15
 10
39.769569
 20
11.218802
 30
0.0
 11
37.006683
 21
7.552332
 31
0.0
  0
LINE
  8
0
  6
CONTINUOUS
 62
    15
 10
41.301174
 20
12.14849
 30
0.0
 11
37.302639
 21
6.842257
 31
0.0
  0
LINE
  8
0
  6
CONTINUOUS
 62
    15
 10
41.800236
 20
12.07007
 30
0.0
 11
37.541592
 21
6.418664
 31
0.0
  0
LINE
  8
0
  6
CONTINUOUS
 62
    15
 10
37.370045
 20
15.408459
 30
0.0
 11
33.130909
 21
9.782941
 31
0.0
  0
POINT
  8
0
  6
CONTINUOUS
 62
    15
 10
34.786022
 20
0.458348
 30
0.0
  0
POINT
  8
0
  6
CONTINUOUS
 62
    15
 10
33.536026
 20
0.461186
 30
0.0
  0
POINT
  8
0
  6
CONTINUOUS
 62
    15
 10
32.486614
 20
0.730209
 30
0.0
  0
POINT
  8
0
  6
CONTINUOUS
 62
    15
 10
31.535538
 20
1.12973
 30
0.0
  0
POINT
  8
0
  6
CONTINUOUS
 62
    15
 10
30.688759
 20
1.667655
 30
0.0
  0
POINT
  8
0
  6
CONTINUOUS
 62
    15
 10
29.492926
 20
1.74237
 30
0.0
  0
POINT
  8
0
  6
CONTINUOUS
 62
    15
 10
28.489674
 20
2.072649
 30
0.0
  0
LINE
  8
0
  6
CONTINUOUS
 62
    15
 10
34.786022
 20
0.458348
 30
0.0
 11
33.536026
 21
0.461186
 31
0.0
  0
LINE
  8
0
  6
CONTINUOUS
 62
    15
 10
33.536026
 20
0.461186
 30
0.0
 11
32.486614
 21
0.730209
 31
0.0
  0
LINE
  8
0
  6
CONTINUOUS
 62
    15
 10
32.486614
 20
0.730209
 30
0.0
 11
31.535538
 21
1.12973
 31
0.0
  0
LINE
  8
0
  6
CONTINUOUS
 62
    15
 10
31.535538
 20
1.12973
 30
0.0
 11
30.688759
 21
1.667655
 31
0.0
  0
LINE
  8
0
  6
CONTINUOUS
 62
    15
 10
34.786022
 20
0.458348
 30
0.0
 11
35.028591
 21
2.441884
 31
0.0
  0
LINE
  8
0
  6
CONTINUOUS
 62
    15
 10
30.688759
 20
1.667655
 30
0.0
 11
29.492926
 21
1.74237
 31
0.0
  0
LINE
  8
0
  6
CONTINUOUS
 62
    15
 10
30.06262
 20
6.207702
 30
0.0
 11
29.965528
 21
6.257175
 31
0.0
  0
LINE
  8
0
  6
CONTINUOUS
 62
    15
 10
28.370054
 20
2.667619
 30
0.0
 11
28.601057
 21
3.339234
 31
0.0
  0
LINE
  8
0
  6
CONTINUOUS
 62
    15
 10
28.601057
 20
3.339234
 30
0.0
 11
28.785439
 21
3.701096
 31
0.0
  0
LINE
  8
0
  6
CONTINUOUS
 62
    15
 10
28.785439
 20
3.701096
 30
0.0
 11
28.823273
 21
4.015373
 31
0.0
  0
LINE
  8
0
  6
CONTINUOUS
 62
    15
 10
28.823273
 20
4.015373
 30
0.0
 11
29.736168
 21
5.807031
 31
0.0
  0
LINE
  8
0
  6
CONTINUOUS
 62
    15
 10
28.327696
 20
2.344548
 30
0.0
 11
28.280109
 21
2.491091
 31
0.0
  0
LINE
  8
0
  6
CONTINUOUS
 62
    15
 10
28.280109
 20
2.491091
 30
0.0
 11
28.370054
 21
2.667619
 31
0.0
  0
LINE
  8
0
  6
CONTINUOUS
 62
    15
 10
28.370054
 20
2.667619
 30
0.0
 11
28.417639
 21
2.521075
 31
0.0
  0
LINE
  8
0
  6
CONTINUOUS
 62
    15
 10
29.736168
 20
5.807031
 30
0.0
 11
30.06262
 21
6.207702
 31
0.0
  0
POINT
  8
0
  6
CONTINUOUS
 62
    15
 10
29.255705
 20
4.115943
 30
0.0
  0
LINE
  8
0
  6
CONTINUOUS
 62
    15
 10
28.495411
 20
2.259091
 30
0.0
 11
28.327696
 21
2.344548
 31
0.0
  0
LINE
  8
0
  6
CONTINUOUS
 62
    15
 10
30.731491
 20
5.450857
 30
0.0
 11
29.794027
 21
2.760058
 31
0.0
  0
LINE
  8
0
  6
CONTINUOUS
 62
    15
 10
29.794027
 20
2.760058
 30
0.0
 11
30.511581
 21
2.160947
 31
0.0
  0
LINE
  8
0
  6
CONTINUOUS
 62
    15
 10
30.409107
 20
6.170987
 30
0.0
 11
28.721031
 21
2.63971
 31
0.0
  0
LINE
  8
0
  6
CONTINUOUS
 62
    15
 10
29.492926
 20
1.74237
 30
0.0
 11
28.495411
 21
2.259091
 31
0.0
  0
LINE
  8
0
  6
CONTINUOUS
 62
    15
 10
30.650246
 20
1.601149
 30
0.0
 11
29.454412
 21
1.675864
 31
0.0
  0
LINE
  8
0
  6
CONTINUOUS
 62
    15
 10
28.289183
 20
2.278042
 30
0.0
 11
28.241598
 21
2.424586
 31
0.0
  0
LINE
  8
0
  6
CONTINUOUS
 62
    15
 10
28.4569
 20
2.192586
 30
0.0
 11
28.289183
 21
2.278042
 31
0.0
  0
LINE
  8
0
  6
CONTINUOUS
 62
    15
 10
29.454412
 20
1.675864
 30
0.0
 11
28.4569
 21
2.192586
 31
0.0
  0
LINE
  8
0
  6
CONTINUOUS
 62
    15
 10
34.483166
 20
2.386404
 30
0.0
 11
34.488377
 21
1.5134
 31
0.0
  0
LINE
  8
0
  6
CONTINUOUS
 62
    15
 10
34.488377
 20
1.5134
 30
0.0
 11
34.272404
 21
1.140431
 31
0.0
  0
LINE
  8
0
  6
CONTINUOUS
 62
    15
 10
34.272404
 20
1.140431
 30
0.0
 11
33.563465
 21
0.804106
 31
0.0
  0
LINE
  8
0
  6
CONTINUOUS
 62
    15
 10
34.839298
 20
2.832598
 30
0.0
 11
34.483166
 21
2.386403
 31
0.0
  0
LINE
  8
0
  6
CONTINUOUS
 62
    15
 10
35.028591
 20
2.441884
 30
0.0
 11
35.05431
 21
1.775952
 31
0.0
  0
LINE
  8
0
  6
CONTINUOUS
 62
    15
 10
35.05431
 20
1.775952
 30
0.0
 11
35.006866
 21
1.182395
 31
0.0
  0
LINE
  8
0
  6
CONTINUOUS
 62
    15
 10
35.006866
 20
1.182395
 30
0.0
 11
34.786022
 21
0.458348
 31
0.0
  0
LINE
  8
0
  6
CONTINUOUS
 62
    15
 10
34.042183
 20
2.80489
 30
0.0
 11
33.248062
 21
1.563785
 31
0.0
  0
LINE
  8
0
  6
CONTINUOUS
 62
    15
 10
33.248062
 20
1.563785
 30
0.0
 11
32.202888
 21
1.237988
 31
0.0
  0
TEXT
  8
0
  6
CONTINUOUS
 62
    15
 10
8.730695
 20
-26.803139
 30
0.0
 40
3.0
  1
S
 11
8.730695
 21
-26.803139
 31
0.0
  0
TEXT
  8
0
  6
CONTINUOUS
 62
    15
 10
11.580694
 20
-26.803139
 30
0.0
 40
3.0
  1
T
 11
11.580694
 21
-26.803139
 31
0.0
  0
TEXT
  8
0
  6
CONTINUOUS
 62
    15
 10
14.430694
 20
-26.803139
 30
0.0
 40
3.0
  1
O
 11
14.430694
 21
-26.803139
 31
0.0
  0
TEXT
  8
0
  6
CONTINUOUS
 62
    15
 10
17.280693
 20
-26.803139
 30
0.0
 40
3.0
  1
P
 11
17.280693
 21
-26.803139
 31
0.0
  0
LINE
  8
0
  6
CONTINUOUS
 62
    15
 10
48.598671
 20
30.54715
 30
0.0
 11
48.848362
 21
28.776207
 31
0.0
  0
LINE
  8
0
  6
CONTINUOUS
 62
    15
 10
48.925377
 20
27.786575
 30
0.0
 11
48.901283
 21
27.70207
 31
0.0
  0
LINE
  8
0
  6
CONTINUOUS
 62
    15
 10
48.901283
 20
27.70207
 30
0.0
 11
48.794689
 21
27.643148
 31
0.0
  0
LINE
  8
0
  6
CONTINUOUS
 62
    15
 10
48.794689
 20
27.643148
 30
0.0
 11
48.170216
 21
27.425322
 31
0.0
  0
LINE
  8
0
  6
CONTINUOUS
 62
    15
 10
46.890232
 20
27.82901
 30
0.0
 11
46.945431
 21
28.400543
 31
0.0
  0
LINE
  8
0
  6
CONTINUOUS
 62
    15
 10
46.945431
 20
28.400543
 30
0.0
 11
46.89579
 21
29.013783
 31
0.0
  0
LINE
  8
0
  6
CONTINUOUS
 62
    15
 10
46.89579
 20
29.013783
 30
0.0
 11
46.684917
 21
30.209702
 31
0.0
  0
LINE
  8
0
  6
CONTINUOUS
 62
    15
 10
46.814598
 20
27.815672
 30
0.0
 11
46.869793
 21
28.387207
 31
0.0
  0
LINE
  8
0
  6
CONTINUOUS
 62
    15
 10
46.869793
 20
28.387207
 30
0.0
 11
46.820152
 21
29.000446
 31
0.0
  0
LINE
  8
0
  6
CONTINUOUS
 62
    15
 10
46.820152
 20
29.000446
 30
0.0
 11
46.60928
 21
30.196365
 31
0.0
  0
LINE
  8
0
  6
CONTINUOUS
 62
    15
 10
46.73896
 20
27.802336
 30
0.0
 11
46.794155
 21
28.373869
 31
0.0
  0
LINE
  8
0
  6
CONTINUOUS
 62
    15
 10
46.794155
 20
28.373869
 30
0.0
 11
46.744518
 21
28.987106
 31
0.0
  0
LINE
  8
0
  6
CONTINUOUS
 62
    15
 10
46.744518
 20
28.987106
 30
0.0
 11
46.533642
 21
30.183029
 31
0.0
  0
LINE
  8
0
  6
CONTINUOUS
 62
    15
 10
46.663326
 20
27.789
 30
0.0
 11
46.718525
 21
28.360533
 31
0.0
  0
LINE
  8
0
  6
CONTINUOUS
 62
    15
 10
46.718525
 20
28.360533
 30
0.0
 11
46.66888
 21
28.97377
 31
0.0
  0
LINE
  8
0
  6
CONTINUOUS
 62
    15
 10
46.66888
 20
28.97377
 30
0.0
 11
46.458012
 21
30.169693
 31
0.0
  0
LINE
  8
0
  6
CONTINUOUS
 62
    15
 10
46.560093
 20
27.489897
 30
0.0
 11
46.606602
 21
27.778997
 31
0.0
  0
LINE
  8
0
  6
CONTINUOUS
 62
    15
 10
46.606602
 20
27.778997
 30
0.0
 11
46.661797
 21
28.350531
 31
0.0
  0
LINE
  8
0
  6
CONTINUOUS
 62
    15
 10
46.661797
 20
28.350531
 30
0.0
 11
46.612156
 21
28.963768
 31
0.0
  0
LINE
  8
0
  6
CONTINUOUS
 62
    15
 10
46.612156
 20
28.963768
 30
0.0
 11
46.401283
 21
30.159691
 31
0.0
  0
LINE
  8
0
  6
CONTINUOUS
 62
    15
 10
48.925377
 20
27.786575
 30
0.0
 11
46.580681
 21
27.373144
 31
0.0
  0
LINE
  8
0
  6
CONTINUOUS
 62
    15
 10
46.844166
 20
27.419601
 30
0.0
 11
46.890232
 21
27.82901
 31
0.0
  0
LINE
  8
0
  6
CONTINUOUS
 62
    15
 10
46.768532
 20
27.406265
 30
0.0
 11
46.814598
 21
27.815672
 31
0.0
  0
LINE
  8
0
  6
CONTINUOUS
 62
    15
 10
46.692894
 20
27.392929
 30
0.0
 11
46.73896
 21
27.802336
 31
0.0
  0
LINE
  8
0
  6
CONTINUOUS
 62
    15
 10
46.61726
 20
27.379593
 30
0.0
 11
46.663326
 21
27.789
 31
0.0
  0
LINE
  8
0
  6
CONTINUOUS
 62
    15
 10
46.560093
 20
27.489897
 30
0.0
 11
46.508511
 21
27.450706
 31
0.0
  0
LINE
  8
0
  6
CONTINUOUS
 62
    15
 10
46.30526
 20
27.271637
 30
0.0
 11
45.221581
 21
27.193495
 31
0.0
  0
LINE
  8
0
  6
CONTINUOUS
 62
    15
 10
45.221581
 20
27.193495
 30
0.0
 11
45.240894
 21
27.083961
 31
0.0
  0
LINE
  8
0
  6
CONTINUOUS
 62
    15
 10
45.054634
 20
27.051121
 30
0.0
 11
45.030491
 21
27.188038
 31
0.0
  0
LINE
  8
0
  6
CONTINUOUS
 62
    15
 10
45.030491
 20
27.188038
 30
0.0
 11
44.19112
 21
27.124739
 31
0.0
  0
LINE
  8
0
  6
CONTINUOUS
 62
    15
 10
45.240894
 20
27.083961
 30
0.0
 11
46.30526
 21
27.271637
 31
0.0
  0
POINT
  8
0
  6
CONTINUOUS
 62
    15
 10
47.023701
 20
27.398319
 30
0.0
  0
LINE
  8
0
  6
CONTINUOUS
 62
    15
 10
38.897739
 20
26.216139
 30
0.0
 11
38.776115
 21
25.944048
 31
0.0
  0
LINE
  8
0
  6
CONTINUOUS
 62
    15
 10
40.345219
 20
26.471371
 30
0.0
 11
40.223598
 21
26.199278
 31
0.0
  0
LINE
  8
0
  6
CONTINUOUS
 62
    15
 10
35.848248
 20
25.427786
 30
0.0
 11
35.802341
 21
25.495798
 31
0.0
  0
LINE
  8
0
  6
CONTINUOUS
 62
    15
 10
35.802341
 20
25.495798
 30
0.0
 11
36.594921
 21
25.810091
 31
0.0
  0
LINE
  8
0
  6
CONTINUOUS
 62
    15
 10
42.739635
 20
26.642923
 30
0.0
 11
45.054634
 21
27.051121
 31
0.0
  0
LINE
  8
0
  6
CONTINUOUS
 62
    15
 10
41.63818
 20
26.448706
 30
0.0
 11
35.848248
 21
25.427786
 31
0.0
  0
LINE
  8
0
  6
CONTINUOUS
 62
    15
 10
41.63818
 20
26.448706
 30
0.0
 11
41.697269
 21
26.538549
 31
0.0
  0
ARC
  8
0
  6
CONTINUOUS
 62
    15
 10
41.61372
 20
26.593497
 30
0.0
 40
0.099999
 50
326.66845
 51
100.001975
  0
LINE
  8
0
  6
CONTINUOUS
 62
    15
 10
41.596352
 20
26.691977
 30
0.0
 11
36.594921
 21
25.810091
 31
0.0
  0
LINE
  8
0
  6
CONTINUOUS
 62
    15
 10
42.739635
 20
26.642923
 30
0.0
 11
42.704174
 21
26.744774
 31
0.0
  0
ARC
  8
0
  6
CONTINUOUS
 62
    15
 10
42.798604
 20
26.777664
 30
0.0
 40
0.099994
 50
99.991974
 51
199.203243
  0
LINE
  8
0
  6
CONTINUOUS
 62
    15
 10
42.781254
 20
26.876141
 30
0.0
 11
44.19112
 21
27.124739
 31
0.0
  0
LINE
  8
0
  6
CONTINUOUS
 62
    15
 10
48.848362
 20
28.776207
 30
0.0
 11
48.925377
 21
27.786575
 31
0.0
  0
LINE
  8
0
  6
CONTINUOUS
 62
    15
 10
44.420876
 20
27.293274
 30
0.0
 11
44.356892
 21
27.351614
 31
0.0
  0
LINE
  8
0
  6
CONTINUOUS
 62
    15
 10
46.508511
 20
27.450706
 30
0.0
 11
46.376152
 21
27.427368
 31
0.0
  0
LINE
  8
0
  6
CONTINUOUS
 62
    15
 10
46.376152
 20
27.427368
 30
0.0
 11
44.420876
 21
27.293274
 31
0.0
  0
LINE
  8
0
  6
CONTINUOUS
 62
    15
 10
44.356892
 20
27.351614
 30
0.0
 11
44.366657
 21
27.60745
 31
0.0
  0
LINE
  8
0
  6
CONTINUOUS
 62
    15
 10
44.366657
 20
27.60745
 30
0.0
 11
44.400661
 21
28.03697
 31
0.0
  0
LINE
  8
0
  6
CONTINUOUS
 62
    15
 10
44.400661
 20
28.03697
 30
0.0
 11
44.417824
 21
28.717636
 31
0.0
  0
LINE
  8
0
  6
CONTINUOUS
 62
    15
 10
44.417824
 20
28.717636
 30
0.0
 11
44.396252
 21
29.30677
 31
0.0
  0
LINE
  8
0
  6
CONTINUOUS
 62
    15
 10
44.396252
 20
29.30677
 30
0.0
 11
44.310856
 21
29.791092
 31
0.0
  0
LINE
  8
0
  6
CONTINUOUS
 62
    15
 10
34.798004
 20
28.11372
 30
0.0
 11
35.168259
 21
26.013899
 31
0.0
  0
ARC
  8
0
  6
CONTINUOUS
 62
    15
 10
35.266741
 20
26.031266
 30
0.0
 40
0.100002
 50
190.001334
 51
310.064785
  0
LINE
  8
0
  6
CONTINUOUS
 62
    15
 10
35.331108
 20
25.954733
 30
0.0
 11
35.626884
 21
26.203495
 31
0.0
  0
ARC
  8
0
  6
CONTINUOUS
 62
    15
 10
35.562482
 20
26.280039
 30
0.0
 40
0.100034
 50
310.076499
 51
9.988317
  0
LINE
  8
0
  6
CONTINUOUS
 62
    15
 10
35.660999
 20
26.29739
 30
0.0
 11
35.324364
 21
28.206532
 31
0.0
  0
LINE
  8
0
  6
CONTINUOUS
 62
    15
 10
48.749943
 20
30.573822
 30
0.0
 11
48.99963
 21
28.802883
 31
0.0
  0
LINE
  8
0
  6
CONTINUOUS
 62
    15
 10
48.99963
 20
28.802883
 30
0.0
 11
49.076649
 21
27.813251
 31
0.0
  0
LINE
  8
0
  6
CONTINUOUS
 62
    15
 10
49.076649
 20
27.813251
 30
0.0
 11
49.040504
 21
27.686493
 31
0.0
  0
LINE
  8
0
  6
CONTINUOUS
 62
    15
 10
49.040504
 20
27.686493
 30
0.0
 11
48.971733
 21
27.634237
 31
0.0
  0
LINE
  8
0
  6
CONTINUOUS
 62
    15
 10
48.971733
 20
27.634237
 30
0.0
 11
48.170216
 21
27.425322
 31
0.0
  0
LINE
  8
0
  6
CONTINUOUS
 62
    15
 10
48.170216
 20
27.425322
 30
0.0
 11
36.164448
 21
25.308382
 31
0.0
  0
LINE
  8
0
  6
CONTINUOUS
 62
    15
 10
34.470226
 20
28.055923
 30
0.0
 11
34.888832
 21
25.681887
 31
0.0
  0
LINE
  8
0
  6
CONTINUOUS
 62
    15
 10
34.888832
 20
25.681887
 30
0.0
 11
35.000008
 21
25.301634
 31
0.0
  0
LINE
  8
0
  6
CONTINUOUS
 62
    15
 10
35.000008
 20
25.301634
 30
0.0
 11
35.093609
 21
25.211514
 31
0.0
  0
LINE
  8
0
  6
CONTINUOUS
 62
    15
 10
35.093609
 20
25.211514
 30
0.0
 11
35.303699
 21
25.195246
 31
0.0
  0
LINE
  8
0
  6
CONTINUOUS
 62
    15
 10
35.303699
 20
25.195246
 30
0.0
 11
36.164448
 21
25.308382
 31
0.0
  0
LINE
  8
0
  6
CONTINUOUS
 62
    15
 10
34.646084
 20
28.086933
 30
0.0
 11
35.06469
 21
25.712894
 31
0.0
  0
LINE
  8
0
  6
CONTINUOUS
 62
    15
 10
35.06469
 20
25.712894
 30
0.0
 11
35.175865
 21
25.332644
 31
0.0
  0
LINE
  8
0
  6
CONTINUOUS
 62
    15
 10
35.175865
 20
25.332644
 30
0.0
 11
35.269463
 21
25.242521
 31
0.0
  0
LINE
  8
0
  6
CONTINUOUS
 62
    15
 10
35.269463
 20
25.242521
 30
0.0
 11
35.479549
 21
25.226254
 31
0.0
  0
LINE
  8
0
  6
CONTINUOUS
 62
    15
 10
48.598671
 20
30.54715
 30
0.0
 11
48.227608
 21
32.296688
 31
0.0
  0
LINE
  8
0
  6
CONTINUOUS
 62
    15
 10
47.961498
 20
33.252979
 30
0.0
 11
47.909962
 21
33.324146
 31
0.0
  0
LINE
  8
0
  6
CONTINUOUS
 62
    15
 10
47.909962
 20
33.324146
 30
0.0
 11
47.789639
 21
33.34306
 31
0.0
  0
LINE
  8
0
  6
CONTINUOUS
 62
    15
 10
47.789639
 20
33.34306
 30
0.0
 11
47.128323
 21
33.334167
 31
0.0
  0
LINE
  8
0
  6
CONTINUOUS
 62
    15
 10
46.063606
 20
32.517044
 30
0.0
 11
46.310951
 21
31.998856
 31
0.0
  0
LINE
  8
0
  6
CONTINUOUS
 62
    15
 10
46.310951
 20
31.998856
 30
0.0
 11
46.474041
 21
31.405624
 31
0.0
  0
LINE
  8
0
  6
CONTINUOUS
 62
    15
 10
46.474041
 20
31.405624
 30
0.0
 11
46.684917
 21
30.209702
 31
0.0
  0
LINE
  8
0
  6
CONTINUOUS
 62
    15
 10
45.987968
 20
32.503708
 30
0.0
 11
46.235313
 21
31.985519
 31
0.0
  0
LINE
  8
0
  6
CONTINUOUS
 62
    15
 10
46.235313
 20
31.985519
 30
0.0
 11
46.398411
 21
31.392288
 31
0.0
  0
LINE
  8
0
  6
CONTINUOUS
 62
    15
 10
46.398411
 20
31.392288
 30
0.0
 11
46.60928
 21
30.196365
 31
0.0
  0
LINE
  8
0
  6
CONTINUOUS
 62
    15
 10
45.912334
 20
32.490372
 30
0.0
 11
46.159679
 21
31.972183
 31
0.0
  0
LINE
  8
0
  6
CONTINUOUS
 62
    15
 10
46.159679
 20
31.972183
 30
0.0
 11
46.322773
 21
31.37895
 31
0.0
  0
LINE
  8
0
  6
CONTINUOUS
 62
    15
 10
46.322773
 20
31.37895
 30
0.0
 11
46.533642
 21
30.183029
 31
0.0
  0
LINE
  8
0
  6
CONTINUOUS
 62
    15
 10
45.836697
 20
32.477036
 30
0.0
 11
46.084042
 21
31.958847
 31
0.0
  0
LINE
  8
0
  6
CONTINUOUS
 62
    15
 10
46.084042
 20
31.958847
 30
0.0
 11
46.247135
 21
31.365614
 31
0.0
  0
LINE
  8
0
  6
CONTINUOUS
 62
    15
 10
46.247135
 20
31.365614
 30
0.0
 11
46.458012
 21
30.169693
 31
0.0
  0
LINE
  8
0
  6
CONTINUOUS
 62
    15
 10
45.637394
 20
32.72279
 30
0.0
 11
45.779972
 21
32.467033
 31
0.0
  0
LINE
  8
0
  6
CONTINUOUS
 62
    15
 10
45.779972
 20
32.467033
 30
0.0
 11
46.027321
 21
31.948845
 31
0.0
  0
LINE
  8
0
  6
CONTINUOUS
 62
    15
 10
46.027321
 20
31.948845
 30
0.0
 11
46.190407
 21
31.355612
 31
0.0
  0
LINE
  8
0
  6
CONTINUOUS
 62
    15
 10
46.190407
 20
31.355612
 30
0.0
 11
46.401283
 21
30.159691
 31
0.0
  0
LINE
  8
0
  6
CONTINUOUS
 62
    15
 10
47.961498
 20
33.252979
 30
0.0
 11
45.616802
 21
32.839542
 31
0.0
  0
LINE
  8
0
  6
CONTINUOUS
 62
    15
 10
45.880291
 20
32.886005
 30
0.0
 11
46.063606
 21
32.517044
 31
0.0
  0
LINE
  8
0
  6
CONTINUOUS
 62
    15
 10
45.804653
 20
32.872669
 30
0.0
 11
45.987968
 21
32.503708
 31
0.0
  0
LINE
  8
0
  6
CONTINUOUS
 62
    15
 10
45.729023
 20
32.859333
 30
0.0
 11
45.912334
 21
32.490372
 31
0.0
  0
LINE
  8
0
  6
CONTINUOUS
 62
    15
 10
45.653385
 20
32.845997
 30
0.0
 11
45.836697
 21
32.477036
 31
0.0
  0
LINE
  8
0
  6
CONTINUOUS
 62
    15
 10
45.637394
 20
32.72279
 30
0.0
 11
45.57552
 21
32.741978
 31
0.0
  0
LINE
  8
0
  6
CONTINUOUS
 62
    15
 10
45.32328
 20
32.840729
 30
0.0
 11
44.278225
 21
32.543518
 31
0.0
  0
LINE
  8
0
  6
CONTINUOUS
 62
    15
 10
44.278225
 20
32.543518
 30
0.0
 11
44.258915
 21
32.653053
 31
0.0
  0
LINE
  8
0
  6
CONTINUOUS
 62
    15
 10
44.072655
 20
32.620213
 30
0.0
 11
44.096794
 21
32.483292
 31
0.0
  0
LINE
  8
0
  6
CONTINUOUS
 62
    15
 10
44.096794
 20
32.483292
 30
0.0
 11
43.286396
 21
32.255692
 31
0.0
  0
LINE
  8
0
  6
CONTINUOUS
 62
    15
 10
44.258915
 20
32.653053
 30
0.0
 11
45.32328
 21
32.840729
 31
0.0
  0
POINT
  8
0
  6
CONTINUOUS
 62
    15
 10
46.041721
 20
32.967411
 30
0.0
  0
LINE
  8
0
  6
CONTINUOUS
 62
    15
 10
34.866268
 20
30.996878
 30
0.0
 11
34.84639
 21
30.917265
 31
0.0
  0
LINE
  8
0
  6
CONTINUOUS
 62
    15
 10
34.84639
 20
30.917265
 30
0.0
 11
35.698666
 21
30.893005
 31
0.0
  0
LINE
  8
0
  6
CONTINUOUS
 62
    15
 10
43.559933
 20
32.1759
 30
0.0
 11
43.519764
 21
32.099194
 31
0.0
  0
LINE
  8
0
  6
CONTINUOUS
 62
    15
 10
45.57552
 20
32.741978
 30
0.0
 11
45.443157
 21
32.718636
 31
0.0
  0
LINE
  8
0
  6
CONTINUOUS
 62
    15
 10
45.443157
 20
32.718636
 30
0.0
 11
43.559933
 21
32.1759
 31
0.0
  0
LINE
  8
0
  6
CONTINUOUS
 62
    15
 10
43.519764
 20
32.099194
 30
0.0
 11
43.616444
 21
31.862127
 31
0.0
  0
LINE
  8
0
  6
CONTINUOUS
 62
    15
 10
43.616444
 20
31.862127
 30
0.0
 11
43.7953
 21
31.470139
 31
0.0
  0
LINE
  8
0
  6
CONTINUOUS
 62
    15
 10
43.7953
 20
31.470139
 30
0.0
 11
44.044228
 21
30.836395
 31
0.0
  0
LINE
  8
0
  6
CONTINUOUS
 62
    15
 10
44.044228
 20
30.836395
 30
0.0
 11
44.225456
 21
30.275414
 31
0.0
  0
LINE
  8
0
  6
CONTINUOUS
 62
    15
 10
44.225456
 20
30.275414
 30
0.0
 11
44.310856
 21
29.791092
 31
0.0
  0
LINE
  8
0
  6
CONTINUOUS
 62
    15
 10
34.798004
 20
28.11372
 30
0.0
 11
34.42775
 21
30.213539
 31
0.0
  0
ARC
  8
0
  6
CONTINUOUS
 62
    15
 10
34.526233
 20
30.230902
 30
0.0
 40
0.100002
 50
69.934609
 51
189.998913
  0
LINE
  8
0
  6
CONTINUOUS
 62
    15
 10
34.560543
 20
30.324835
 30
0.0
 11
34.923561
 21
30.192238
 31
0.0
  0
ARC
  8
0
  6
CONTINUOUS
 62
    15
 10
34.889227
 20
30.098288
 30
0.0
 40
0.100027
 50
10.009156
 51
69.92525
  0
LINE
  8
0
  6
CONTINUOUS
 62
    15
 10
34.987732
 20
30.115673
 30
0.0
 11
35.324364
 21
28.206532
 31
0.0
  0
LINE
  8
0
  6
CONTINUOUS
 62
    15
 10
48.749943
 20
30.573822
 30
0.0
 11
48.378872
 21
32.32336
 31
0.0
  0
LINE
  8
0
  6
CONTINUOUS
 62
    15
 10
48.11277
 20
33.279652
 30
0.0
 11
48.035458
 21
33.386406
 31
0.0
  0
LINE
  8
0
  6
CONTINUOUS
 62
    15
 10
48.035458
 20
33.386406
 30
0.0
 11
47.952961
 21
33.411987
 31
0.0
  0
LINE
  8
0
  6
CONTINUOUS
 62
    15
 10
47.952961
 20
33.411987
 30
0.0
 11
47.128323
 21
33.334167
 31
0.0
  0
LINE
  8
0
  6
CONTINUOUS
 62
    15
 10
34.470226
 20
28.055923
 30
0.0
 11
34.051617
 21
30.429962
 31
0.0
  0
LINE
  8
0
  6
CONTINUOUS
 62
    15
 10
34.051617
 20
30.429962
 30
0.0
 11
34.026035
 21
30.825306
 31
0.0
  0
LINE
  8
0
  6
CONTINUOUS
 62
    15
 10
34.026035
 20
30.825306
 30
0.0
 11
34.083168
 21
30.942005
 31
0.0
  0
LINE
  8
0
  6
CONTINUOUS
 62
    15
 10
34.083168
 20
30.942005
 30
0.0
 11
34.275028
 21
31.029148
 31
0.0
  0
LINE
  8
0
  6
CONTINUOUS
 62
    15
 10
34.275028
 20
31.029148
 30
0.0
 11
35.122559
 21
31.217228
 31
0.0
  0
LINE
  8
0
  6
CONTINUOUS
 62
    15
 10
34.646084
 20
28.086933
 30
0.0
 11
34.227474
 21
30.460972
 31
0.0
  0
LINE
  8
0
  6
CONTINUOUS
 62
    15
 10
34.227474
 20
30.460972
 30
0.0
 11
34.201893
 21
30.856314
 31
0.0
  0
LINE
  8
0
  6
CONTINUOUS
 62
    15
 10
34.201893
 20
30.856314
 30
0.0
 11
34.259022
 21
30.973013
 31
0.0
  0
LINE
  8
0
  6
CONTINUOUS
 62
    15
 10
34.259022
 20
30.973013
 30
0.0
 11
34.450878
 21
31.060154
 31
0.0
  0
LINE
  8
0
  6
CONTINUOUS
 62
    15
 10
35.878574
 20
28.304253
 30
0.0
 11
36.18671
 21
26.556734
 31
0.0
  0
LINE
  8
0
  6
CONTINUOUS
 62
    15
 10
36.18671
 20
26.556734
 30
0.0
 11
36.24807
 21
26.208746
 31
0.0
  0
LINE
  8
0
  6
CONTINUOUS
 62
    15
 10
36.24807
 20
26.208746
 30
0.0
 11
36.081993
 21
25.964182
 31
0.0
  0
LINE
  8
0
  6
CONTINUOUS
 62
    15
 10
36.081993
 20
25.964182
 30
0.0
 11
35.522427
 21
25.57847
 31
0.0
  0
LINE
  8
0
  6
CONTINUOUS
 62
    15
 10
35.522427
 20
25.57847
 30
0.0
 11
35.1245
 21
25.508305
 31
0.0
  0
LINE
  8
0
  6
CONTINUOUS
 62
    15
 10
35.878574
 20
28.304253
 30
0.0
 11
35.570438
 21
30.051771
 31
0.0
  0
LINE
  8
0
  6
CONTINUOUS
 62
    15
 10
35.570438
 20
30.051771
 30
0.0
 11
35.509079
 21
30.399761
 31
0.0
  0
LINE
  8
0
  6
CONTINUOUS
 62
    15
 10
35.509079
 20
30.399761
 30
0.0
 11
35.269375
 21
30.572775
 31
0.0
  0
LINE
  8
0
  6
CONTINUOUS
 62
    15
 10
35.269375
 20
30.572775
 30
0.0
 11
34.611629
 21
30.743841
 31
0.0
  0
LINE
  8
0
  6
CONTINUOUS
 62
    15
 10
34.611629
 20
30.743841
 30
0.0
 11
34.213707
 21
30.673676
 31
0.0
  0
LINE
  8
0
  6
CONTINUOUS
 62
    15
 10
44.296207
 20
27.235516
 30
0.0
 11
43.661877
 21
27.160686
 31
0.0
  0
LINE
  8
0
  6
CONTINUOUS
 62
    15
 10
43.661877
 20
27.160686
 30
0.0
 11
42.527996
 21
26.960752
 31
0.0
  0
LINE
  8
0
  6
CONTINUOUS
 62
    15
 10
42.527996
 20
26.960752
 30
0.0
 11
42.46455
 21
26.912544
 31
0.0
  0
LINE
  8
0
  6
CONTINUOUS
 62
    15
 10
42.46455
 20
26.912544
 30
0.0
 11
42.410603
 21
26.810478
 31
0.0
  0
LINE
  8
0
  6
CONTINUOUS
 62
    15
 10
42.410603
 20
26.810478
 30
0.0
 11
42.445423
 21
26.613005
 31
0.0
  0
LINE
  8
0
  6
CONTINUOUS
 62
    15
 10
42.445423
 20
26.613005
 30
0.0
 11
42.514015
 21
26.427982
 31
0.0
  0
LINE
  8
0
  6
CONTINUOUS
 62
    15
 10
43.423031
 20
32.187538
 30
0.0
 11
42.801369
 21
32.040901
 31
0.0
  0
POINT
  8
0
  6
CONTINUOUS
 62
    15
 10
44.30822
 20
32.734673
 30
0.0
  0
POINT
  8
0
  6
CONTINUOUS
 62
    15
 10
43.373516
 20
32.252605
 30
0.0
  0
POINT
  8
0
  6
CONTINUOUS
 62
    15
 10
42.497242
 20
31.439178
 30
0.0
  0
POINT
  8
0
  6
CONTINUOUS
 62
    15
 10
41.583408
 20
30.838772
 30
0.0
  0
POINT
  8
0
  6
CONTINUOUS
 62
    15
 10
40.632015
 20
30.451374
 30
0.0
  0
POINT
  8
0
  6
CONTINUOUS
 62
    15
 10
39.628502
 20
30.494068
 30
0.0
  0
POINT
  8
0
  6
CONTINUOUS
 62
    15
 10
38.508579
 20
30.961609
 30
0.0
  0
POINT
  8
0
  6
CONTINUOUS
 62
    15
 10
36.482723
 20
31.01927
 30
0.0
  0
POINT
  8
0
  6
CONTINUOUS
 62
    15
 10
37.494583
 20
30.929241
 30
0.0
  0
POINT
  8
0
  6
CONTINUOUS
 62
    15
 10
35.448391
 20
31.135841
 30
0.0
  0
LINE
  8
0
  6
CONTINUOUS
 62
    15
 10
44.30822
 20
32.734673
 30
0.0
 11
43.373516
 21
32.252605
 31
0.0
  0
LINE
  8
0
  6
CONTINUOUS
 62
    15
 10
42.497242
 20
31.439178
 30
0.0
 11
41.583408
 21
30.838772
 31
0.0
  0
LINE
  8
0
  6
CONTINUOUS
 62
    15
 10
41.583408
 20
30.838772
 30
0.0
 11
40.632015
 21
30.451374
 31
0.0
  0
LINE
  8
0
  6
CONTINUOUS
 62
    15
 10
40.632015
 20
30.451374
 30
0.0
 11
39.628502
 21
30.494068
 31
0.0
  0
LINE
  8
0
  6
CONTINUOUS
 62
    15
 10
39.628502
 20
30.494068
 30
0.0
 11
38.508579
 21
30.961609
 31
0.0
  0
LINE
  8
0
  6
CONTINUOUS
 62
    15
 10
37.494583
 20
30.929241
 30
0.0
 11
36.482723
 21
31.01927
 31
0.0
  0
LINE
  8
0
  6
CONTINUOUS
 62
    15
 10
36.482723
 20
31.01927
 30
0.0
 11
35.448391
 21
31.135841
 31
0.0
  0
LINE
  8
0
  6
CONTINUOUS
 62
    15
 10
42.944817
 20
31.854652
 30
0.0
 11
43.373516
 21
32.252605
 31
0.0
  0
LINE
  8
0
  6
CONTINUOUS
 62
    15
 10
42.940037
 20
31.850212
 30
0.0
 11
42.497242
 21
31.439178
 31
0.0
  0
LINE
  8
0
  6
CONTINUOUS
 62
    15
 10
37.525917
 20
30.930243
 30
0.0
 11
38.508579
 21
30.961609
 31
0.0
  0
LINE
  8
0
  6
CONTINUOUS
 62
    15
 10
37.517452
 20
30.92997
 30
0.0
 11
37.494583
 21
30.929241
 31
0.0
  0
LINE
  8
0
  6
CONTINUOUS
 62
    15
 10
42.490963
 20
31.34087
 30
0.0
 11
41.577129
 21
30.740461
 31
0.0
  0
LINE
  8
0
  6
CONTINUOUS
 62
    15
 10
41.577129
 20
30.740461
 30
0.0
 11
40.62574
 21
30.353064
 31
0.0
  0
LINE
  8
0
  6
CONTINUOUS
 62
    15
 10
40.62574
 20
30.353064
 30
0.0
 11
39.622227
 21
30.395758
 31
0.0
  0
LINE
  8
0
  6
CONTINUOUS
 62
    15
 10
39.622227
 20
30.395758
 30
0.0
 11
38.5023
 21
30.8633
 31
0.0
  0
LINE
  8
0
  6
CONTINUOUS
 62
    15
 10
42.933754
 20
31.751904
 30
0.0
 11
42.490963
 21
31.34087
 31
0.0
  0
LINE
  8
0
  6
CONTINUOUS
 62
    15
 10
37.519638
 20
30.831932
 30
0.0
 11
38.5023
 21
30.8633
 31
0.0
  0
LINE
  8
0
  6
CONTINUOUS
 62
    15
 10
44.30822
 20
32.734673
 30
0.0
 11
44.670017
 21
32.9007
 31
0.0
  0
LINE
  8
0
  6
CONTINUOUS
 62
    15
 10
44.71769
 20
32.909107
 30
0.0
 11
47.128323
 21
33.334167
 31
0.0
  0
LINE
  8
0
  6
CONTINUOUS
 62
    15
 10
35.448391
 20
31.135841
 30
0.0
 11
35.122559
 21
31.217228
 31
0.0
  0
LINE
  8
0
  6
CONTINUOUS
 62
    15
 10
35.698666
 20
30.893005
 30
0.0
 11
36.484123
 21
31.031506
 31
0.0
  0
LINE
  8
0
  6
CONTINUOUS
 62
    15
 10
44.670017
 20
32.9007
 30
0.0
 11
43.07238
 21
32.308563
 31
0.0
  0
LINE
  8
0
  6
CONTINUOUS
 62
    15
 10
43.07238
 20
32.308563
 30
0.0
 11
41.658974
 21
31.724958
 31
0.0
  0
LINE
  8
0
  6
CONTINUOUS
 62
    15
 10
41.658974
 20
31.724958
 30
0.0
 11
40.71994
 21
31.522228
 31
0.0
  0
LINE
  8
0
  6
CONTINUOUS
 62
    15
 10
40.71994
 20
31.522228
 30
0.0
 11
38.733738
 21
31.320621
 31
0.0
  0
LINE
  8
0
  6
CONTINUOUS
 62
    15
 10
38.733738
 20
31.320621
 30
0.0
 11
36.781719
 21
31.334623
 31
0.0
  0
LINE
  8
0
  6
CONTINUOUS
 62
    15
 10
34.866268
 20
30.996878
 30
0.0
 11
36.781719
 21
31.334623
 31
0.0
  0
LINE
  8
0
  6
CONTINUOUS
 62
    15
 10
43.768559
 20
32.566589
 30
0.0
 11
44.072655
 21
32.620213
 31
0.0
  0
LINE
  8
0
  6
CONTINUOUS
 62
    15
 10
42.689388
 20
32.150425
 30
0.0
 11
43.286396
 21
32.255692
 31
0.0
  0
LINE
  8
0
  6
CONTINUOUS
 62
    15
 10
42.801369
 20
32.040901
 30
0.0
 11
42.142994
 21
31.924812
 31
0.0
  0
LINE
  8
0
  6
CONTINUOUS
 62
    15
 10
48.378872
 20
32.32336
 30
0.0
 11
48.280132
 21
32.678211
 31
0.0
  0
LINE
  8
0
  6
CONTINUOUS
 62
    15
 10
48.227608
 20
32.296688
 30
0.0
 11
48.128864
 21
32.651539
 31
0.0
  0
LINE
  8
0
  6
CONTINUOUS
 62
    15
 10
48.128864
 20
32.651539
 30
0.0
 11
48.03083
 21
32.746296
 31
0.0
  0
LINE
  8
0
  6
CONTINUOUS
 62
    15
 10
48.03083
 20
32.746296
 30
0.0
 11
47.947964
 21
32.914314
 31
0.0
  0
LINE
  8
0
  6
CONTINUOUS
 62
    15
 10
47.947964
 20
32.914314
 30
0.0
 11
47.924572
 21
33.147617
 31
0.0
  0
LINE
  8
0
  6
CONTINUOUS
 62
    15
 10
47.924572
 20
33.147617
 30
0.0
 11
47.961498
 21
33.252979
 31
0.0
  0
LINE
  8
0
  6
CONTINUOUS
 62
    15
 10
48.068508
 20
33.136471
 30
0.0
 11
48.11277
 21
33.279652
 31
0.0
  0
LINE
  8
0
  6
CONTINUOUS
 62
    15
 10
48.280132
 20
32.678211
 30
0.0
 11
48.185738
 21
32.773609
 31
0.0
  0
LINE
  8
0
  6
CONTINUOUS
 62
    15
 10
48.062199
 20
32.970985
 30
0.0
 11
48.068508
 21
33.136471
 31
0.0
  0
LINE
  8
0
  6
CONTINUOUS
 62
    15
 10
48.185738
 20
32.773609
 30
0.0
 11
48.062199
 21
32.970985
 31
0.0
  0
LINE
  8
0
  6
CONTINUOUS
 62
    15
 10
27.015503
 20
-48.255077
 30
0.0
 11
24.449953
 21
-48.255077
 31
0.0
  0
LINE
  8
0
  6
CONTINUOUS
 62
    15
 10
21.379192
 20
-48.056999
 30
0.0
 11
21.884401
 21
-48.255077
 31
0.0
  0
LINE
  8
0
  6
CONTINUOUS
 62
    15
 10
21.884401
 20
-48.255077
 30
0.0
 11
24.449953
 21
-48.255077
 31
0.0
  0
LINE
  8
0
  6
CONTINUOUS
 62
    15
 10
27.084839
 20
-45.689526
 30
0.0
 11
27.084839
 21
-47.7598
 31
0.0
  0
LINE
  8
0
  6
CONTINUOUS
 62
    15
 10
21.78532
 20
-44.639519
 30
0.0
 11
21.993328
 21
-45.649895
 31
0.0
  0
LINE
  8
0
  6
CONTINUOUS
 62
    15
 10
21.993328
 20
-45.649895
 30
0.0
 11
22.082479
 21
-45.748974
 31
0.0
  0
LINE
  8
0
  6
CONTINUOUS
 62
    15
 10
22.082479
 20
-45.748974
 30
0.0
 11
23.300905
 21
-45.540928
 31
0.0
  0
LINE
  8
0
  6
CONTINUOUS
 62
    15
 10
23.300905
 20
-45.540928
 30
0.0
 11
24.400433
 21
-45.451775
 31
0.0
  0
LINE
  8
0
  6
CONTINUOUS
 62
    15
 10
24.400433
 20
-45.451775
 30
0.0
 11
24.449953
 21
-45.451775
 31
0.0
  0
LINE
  8
0
  6
CONTINUOUS
 62
    15
 10
24.449953
 20
-48.611687
 30
0.0
 11
21.78532
 21
-48.611687
 31
0.0
  0
LINE
  8
0
  6
CONTINUOUS
 62
    15
 10
24.449953
 20
-48.611687
 30
0.0
 11
27.124472
 21
-48.611687
 31
0.0
  0
LINE
  8
0
  6
CONTINUOUS
 62
    15
 10
21.5872
 20
-44.639519
 30
0.0
 11
21.815023
 21
-45.689526
 31
0.0
  0
LINE
  8
0
  6
CONTINUOUS
 62
    15
 10
21.815023
 20
-45.689526
 30
0.0
 11
21.815023
 21
-47.7598
 31
0.0
  0
LINE
  8
0
  6
CONTINUOUS
 62
    15
 10
21.815023
 20
-47.7598
 30
0.0
 11
21.5872
 21
-47.660759
 31
0.0
  0
LINE
  8
0
  6
CONTINUOUS
 62
    15
 10
21.5872
 20
-47.660759
 30
0.0
 11
21.5872
 21
-44.639519
 31
0.0
  0
LINE
  8
0
  6
CONTINUOUS
 62
    15
 10
26.223064
 20
-44.431511
 30
0.0
 11
27.015503
 21
-44.540478
 31
0.0
  0
LINE
  8
0
  6
CONTINUOUS
 62
    15
 10
27.015503
 20
-44.540478
 30
0.0
 11
27.124472
 21
-44.639519
 31
0.0
  0
LINE
  8
0
  6
CONTINUOUS
 62
    15
 10
27.124472
 20
-44.639519
 30
0.0
 11
26.926352
 21
-45.649895
 31
0.0
  0
LINE
  8
0
  6
CONTINUOUS
 62
    15
 10
26.926352
 20
-45.649895
 30
0.0
 11
26.817383
 21
-45.748974
 31
0.0
  0
LINE
  8
0
  6
CONTINUOUS
 62
    15
 10
26.817383
 20
-45.748974
 30
0.0
 11
25.608929
 21
-45.540928
 31
0.0
  0
LINE
  8
0
  6
CONTINUOUS
 62
    15
 10
25.608929
 20
-45.540928
 30
0.0
 11
24.509401
 21
-45.451775
 31
0.0
  0
LINE
  8
0
  6
CONTINUOUS
 62
    15
 10
24.509401
 20
-45.451775
 30
0.0
 11
24.449953
 21
-45.451775
 31
0.0
  0
LINE
  8
0
  6
CONTINUOUS
 62
    15
 10
26.114096
 20
-44.13435
 30
0.0
 11
26.926352
 21
-44.233391
 31
0.0
  0
LINE
  8
0
  6
CONTINUOUS
 62
    15
 10
26.926352
 20
-44.233391
 30
0.0
 11
27.124472
 21
-44.233391
 31
0.0
  0
LINE
  8
0
  6
CONTINUOUS
 62
    15
 10
27.124472
 20
-44.233391
 30
0.0
 11
27.223553
 21
-44.13435
 31
0.0
  0
LINE
  8
0
  6
CONTINUOUS
 62
    15
 10
21.290041
 20
-48.056999
 30
0.0
 11
21.379192
 21
-48.056999
 31
0.0
  0
LINE
  8
0
  6
CONTINUOUS
 62
    15
 10
21.290041
 20
-43.93623
 30
0.0
 11
21.290041
 21
-48.056999
 31
0.0
  0
LINE
  8
0
  6
CONTINUOUS
 62
    15
 10
21.379192
 20
-47.938541
 30
0.0
 11
21.379192
 21
-43.93623
 31
0.0
  0
LINE
  8
0
  6
CONTINUOUS
 62
    15
 10
21.676352
 20
-50.86694
 30
0.0
 11
21.884401
 21
-51.065022
 31
0.0
  0
LINE
  8
0
  6
CONTINUOUS
 62
    15
 10
21.884401
 20
-51.065022
 30
0.0
 11
21.993328
 21
-51.362221
 31
0.0
  0
LINE
  8
0
  6
CONTINUOUS
 62
    15
 10
21.993328
 20
-51.362221
 30
0.0
 11
21.993328
 21
-53.085854
 31
0.0
  0
LINE
  8
0
  6
CONTINUOUS
 62
    15
 10
21.993328
 20
-53.085854
 30
0.0
 11
21.884401
 21
-53.382973
 31
0.0
  0
LINE
  8
0
  6
CONTINUOUS
 62
    15
 10
21.884401
 20
-53.382973
 30
0.0
 11
21.676352
 21
-53.49194
 31
0.0
  0
LINE
  8
0
  6
CONTINUOUS
 62
    15
 10
27.223553
 20
-50.86694
 30
0.0
 11
27.015503
 21
-51.065022
 31
0.0
  0
LINE
  8
0
  6
CONTINUOUS
 62
    15
 10
27.015503
 20
-51.065022
 30
0.0
 11
26.926352
 21
-51.362221
 31
0.0
  0
LINE
  8
0
  6
CONTINUOUS
 62
    15
 10
26.926352
 20
-51.362221
 30
0.0
 11
26.926352
 21
-53.085854
 31
0.0
  0
LINE
  8
0
  6
CONTINUOUS
 62
    15
 10
26.926352
 20
-53.085854
 30
0.0
 11
27.015503
 21
-53.382973
 31
0.0
  0
LINE
  8
0
  6
CONTINUOUS
 62
    15
 10
27.015503
 20
-53.382973
 30
0.0
 11
27.223553
 21
-53.49194
 31
0.0
  0
LINE
  8
0
  6
CONTINUOUS
 62
    15
 10
25.450399
 20
-55.463211
 30
0.0
 11
25.450399
 21
-54.462723
 31
0.0
  0
LINE
  8
0
  6
CONTINUOUS
 62
    15
 10
24.786745
 20
-52.471676
 30
0.0
 11
24.786745
 21
-50.470699
 31
0.0
  0
LINE
  8
0
  6
CONTINUOUS
 62
    15
 10
21.379192
 20
-50.460854
 30
0.0
 11
21.290041
 21
-51.065022
 31
0.0
  0
LINE
  8
0
  6
CONTINUOUS
 62
    15
 10
21.290041
 20
-53.085854
 30
0.0
 11
21.379192
 21
-53.789139
 31
0.0
  0
LINE
  8
0
  6
CONTINUOUS
 62
    15
 10
23.449465
 20
-55.463211
 30
0.0
 11
23.449465
 21
-54.462723
 31
0.0
  0
LINE
  8
0
  6
CONTINUOUS
 62
    15
 10
24.123049
 20
-52.471676
 30
0.0
 11
24.123049
 21
-50.470699
 31
0.0
  0
LINE
  8
0
  6
CONTINUOUS
 62
    15
 10
21.676352
 20
-55.799965
 30
0.0
 11
21.5872
 21
-55.700924
 31
0.0
  0
LINE
  8
0
  6
CONTINUOUS
 62
    15
 10
21.5872
 20
-55.700924
 30
0.0
 11
21.379192
 21
-55.393795
 31
0.0
  0
LINE
  8
0
  6
CONTINUOUS
 62
    15
 10
21.290041
 20
-51.065022
 30
0.0
 11
21.290041
 21
-53.085854
 31
0.0
  0
LINE
  8
0
  6
CONTINUOUS
 62
    15
 10
21.379192
 20
-53.789139
 30
0.0
 11
21.379192
 21
-55.998039
 31
0.0
  0
LINE
  8
0
  6
CONTINUOUS
 62
    15
 10
21.379192
 20
-55.998039
 30
0.0
 11
21.5872
 21
-56.206127
 31
0.0
  0
LINE
  8
0
  6
CONTINUOUS
 62
    15
 10
21.5872
 20
-56.206127
 30
0.0
 11
24.449953
 21
-56.206127
 31
0.0
  0
LINE
  8
0
  6
CONTINUOUS
 62
    15
 10
24.449953
 20
-55.799965
 30
0.0
 11
27.223553
 21
-55.799965
 31
0.0
  0
LINE
  8
0
  6
CONTINUOUS
 62
    15
 10
24.449953
 20
-55.799965
 30
0.0
 11
21.676352
 21
-55.799965
 31
0.0
  0
LINE
  8
0
  6
CONTINUOUS
 62
    15
 10
21.379192
 20
-46.637245
 30
0.0
 11
21.379192
 21
-50.460854
 31
0.0
  0
LINE
  8
0
  6
CONTINUOUS
 62
    15
 10
25.450399
 20
-53.135334
 30
0.0
 11
25.450399
 21
-49.791538
 31
0.0
  0
LINE
  8
0
  6
CONTINUOUS
 62
    15
 10
26.114096
 20
-53.798988
 30
0.0
 11
26.114096
 21
-49.499805
 31
0.0
  0
LINE
  8
0
  6
CONTINUOUS
 62
    15
 10
26.777792
 20
-55.463211
 30
0.0
 11
26.777792
 21
-49.078407
 31
0.0
  0
LINE
  8
0
  6
CONTINUOUS
 62
    15
 10
23.449465
 20
-53.135334
 30
0.0
 11
23.449465
 21
-49.921196
 31
0.0
  0
LINE
  8
0
  6
CONTINUOUS
 62
    15
 10
22.785809
 20
-53.798988
 30
0.0
 11
22.785809
 21
-49.208065
 31
0.0
  0
LINE
  8
0
  6
CONTINUOUS
 62
    15
 10
22.122112
 20
-55.463211
 30
0.0
 11
22.122112
 21
-48.819084
 31
0.0
  0
LINE
  8
0
  6
CONTINUOUS
 62
    15
 10
21.676352
 20
-55.700924
 30
0.0
 11
21.676352
 21
-48.624596
 31
0.0
  0
LINE
  8
0
  6
CONTINUOUS
 62
    15
 10
27.223553
 20
-55.700924
 30
0.0
 11
27.223553
 21
-48.657009
 31
0.0
  0
LINE
  8
0
  6
CONTINUOUS
 62
    15
 10
26.743633
 20
-40.109306
 30
0.0
 11
26.963333
 21
-40.784702
 31
0.0
  0
LINE
  8
0
  6
CONTINUOUS
 62
    15
 10
26.963333
 20
-40.784702
 30
0.0
 11
27.033855
 21
-41.184662
 31
0.0
  0
LINE
  8
0
  6
CONTINUOUS
 62
    15
 10
27.033855
 20
-41.184662
 30
0.0
 11
27.192776
 21
-41.458424
 31
0.0
  0
POINT
  8
0
  6
CONTINUOUS
 62
    15
 10
26.907944
 20
-41.798988
 30
0.0
  0
LINE
  8
0
  6
CONTINUOUS
 62
    15
 10
27.223553
 20
-44.13435
 30
0.0
 11
26.446535
 21
-40.298241
 31
0.0
  0
LINE
  8
0
  6
CONTINUOUS
 62
    15
 10
27.520712
 20
-48.056999
 30
0.0
 11
27.015503
 21
-48.255077
 31
0.0
  0
LINE
  8
0
  6
CONTINUOUS
 62
    15
 10
27.312704
 20
-44.639519
 30
0.0
 11
27.084839
 21
-45.689526
 31
0.0
  0
LINE
  8
0
  6
CONTINUOUS
 62
    15
 10
27.084839
 20
-47.7598
 30
0.0
 11
27.312704
 21
-47.660759
 31
0.0
  0
LINE
  8
0
  6
CONTINUOUS
 62
    15
 10
27.312704
 20
-47.660759
 30
0.0
 11
27.312704
 21
-44.639519
 31
0.0
  0
LINE
  8
0
  6
CONTINUOUS
 62
    15
 10
27.629681
 20
-43.93623
 30
0.0
 11
27.629681
 21
-48.056999
 31
0.0
  0
LINE
  8
0
  6
CONTINUOUS
 62
    15
 10
27.629681
 20
-48.056999
 30
0.0
 11
27.520712
 21
-48.056999
 31
0.0
  0
LINE
  8
0
  6
CONTINUOUS
 62
    15
 10
27.520712
 20
-47.972572
 30
0.0
 11
27.520712
 21
-43.93623
 31
0.0
  0
LINE
  8
0
  6
CONTINUOUS
 62
    15
 10
36.670704
 20
-48.056999
 30
0.0
 11
36.165497
 21
-48.255077
 31
0.0
  0
LINE
  8
0
  6
CONTINUOUS
 62
    15
 10
36.165497
 20
-48.255077
 30
0.0
 11
33.599945
 21
-48.255077
 31
0.0
  0
LINE
  8
0
  6
CONTINUOUS
 62
    15
 10
31.440521
 20
-43.639072
 30
0.0
 11
31.846649
 21
-40.815952
 31
0.0
  0
LINE
  8
0
  6
CONTINUOUS
 62
    15
 10
31.846649
 20
-40.815952
 30
0.0
 11
32.748058
 21
-40.607903
 31
0.0
  0
LINE
  8
0
  6
CONTINUOUS
 62
    15
 10
30.529186
 20
-48.056999
 30
0.0
 11
31.034393
 21
-48.255077
 31
0.0
  0
LINE
  8
0
  6
CONTINUOUS
 62
    15
 10
31.034393
 20
-48.255077
 30
0.0
 11
33.599945
 21
-48.255077
 31
0.0
  0
LINE
  8
0
  6
CONTINUOUS
 62
    15
 10
36.462696
 20
-44.639519
 30
0.0
 11
36.234833
 21
-45.689526
 31
0.0
  0
LINE
  8
0
  6
CONTINUOUS
 62
    15
 10
36.234833
 20
-45.689526
 30
0.0
 11
36.234833
 21
-47.7598
 31
0.0
  0
LINE
  8
0
  6
CONTINUOUS
 62
    15
 10
36.234833
 20
-47.7598
 30
0.0
 11
36.462696
 21
-47.660759
 31
0.0
  0
LINE
  8
0
  6
CONTINUOUS
 62
    15
 10
36.462696
 20
-47.660759
 30
0.0
 11
36.462696
 21
-44.639519
 31
0.0
  0
LINE
  8
0
  6
CONTINUOUS
 62
    15
 10
33.599945
 20
-44.342358
 30
0.0
 11
33.045216
 21
-44.342358
 31
0.0
  0
LINE
  8
0
  6
CONTINUOUS
 62
    15
 10
33.045216
 20
-44.342358
 30
0.0
 11
31.846649
 21
-44.431511
 31
0.0
  0
LINE
  8
0
  6
CONTINUOUS
 62
    15
 10
31.846649
 20
-44.431511
 30
0.0
 11
31.034393
 21
-44.540478
 31
0.0
  0
LINE
  8
0
  6
CONTINUOUS
 62
    15
 10
31.034393
 20
-44.540478
 30
0.0
 11
30.935314
 21
-44.639519
 31
0.0
  0
LINE
  8
0
  6
CONTINUOUS
 62
    15
 10
30.935314
 20
-44.639519
 30
0.0
 11
31.143322
 21
-45.649895
 31
0.0
  0
LINE
  8
0
  6
CONTINUOUS
 62
    15
 10
31.143322
 20
-45.649895
 30
0.0
 11
31.232473
 21
-45.748974
 31
0.0
  0
LINE
  8
0
  6
CONTINUOUS
 62
    15
 10
31.232473
 20
-45.748974
 30
0.0
 11
32.450897
 21
-45.540928
 31
0.0
  0
LINE
  8
0
  6
CONTINUOUS
 62
    15
 10
32.450897
 20
-45.540928
 30
0.0
 11
33.550426
 21
-45.451775
 31
0.0
  0
LINE
  8
0
  6
CONTINUOUS
 62
    15
 10
33.550426
 20
-45.451775
 30
0.0
 11
33.599945
 21
-45.451775
 31
0.0
  0
LINE
  8
0
  6
CONTINUOUS
 62
    15
 10
35.759369
 20
-43.639072
 30
0.0
 11
35.373058
 21
-40.815952
 31
0.0
  0
LINE
  8
0
  6
CONTINUOUS
 62
    15
 10
35.373058
 20
-40.815952
 30
0.0
 11
34.46172
 21
-40.607903
 31
0.0
  0
LINE
  8
0
  6
CONTINUOUS
 62
    15
 10
36.670704
 20
-43.93623
 30
0.0
 11
36.779675
 21
-43.93623
 31
0.0
  0
LINE
  8
0
  6
CONTINUOUS
 62
    15
 10
30.737194
 20
-44.639519
 30
0.0
 11
30.965017
 21
-45.689526
 31
0.0
  0
LINE
  8
0
  6
CONTINUOUS
 62
    15
 10
30.965017
 20
-45.689526
 30
0.0
 11
30.965017
 21
-47.7598
 31
0.0
  0
LINE
  8
0
  6
CONTINUOUS
 62
    15
 10
30.965017
 20
-47.7598
 30
0.0
 11
30.737194
 21
-47.660759
 31
0.0
  0
LINE
  8
0
  6
CONTINUOUS
 62
    15
 10
30.737194
 20
-47.660759
 30
0.0
 11
30.737194
 21
-44.639519
 31
0.0
  0
LINE
  8
0
  6
CONTINUOUS
 62
    15
 10
33.599945
 20
-44.0452
 30
0.0
 11
32.847095
 21
-44.0452
 31
0.0
  0
LINE
  8
0
  6
CONTINUOUS
 62
    15
 10
32.847095
 20
-44.0452
 30
0.0
 11
31.935802
 21
-44.13435
 31
0.0
  0
LINE
  8
0
  6
CONTINUOUS
 62
    15
 10
31.935802
 20
-44.13435
 30
0.0
 11
31.143322
 21
-44.233391
 31
0.0
  0
LINE
  8
0
  6
CONTINUOUS
 62
    15
 10
31.143322
 20
-44.233391
 30
0.0
 11
30.935314
 21
-44.233391
 31
0.0
  0
LINE
  8
0
  6
CONTINUOUS
 62
    15
 10
30.935314
 20
-44.233391
 30
0.0
 11
30.826345
 21
-44.13435
 31
0.0
  0
LINE
  8
0
  6
CONTINUOUS
 62
    15
 10
30.826345
 20
-44.13435
 30
0.0
 11
30.935314
 21
-40.221592
 31
0.0
  0
LINE
  8
0
  6
CONTINUOUS
 62
    15
 10
30.935314
 20
-40.221592
 30
0.0
 11
33.599945
 21
-40.013584
 31
0.0
  0
LINE
  8
0
  6
CONTINUOUS
 62
    15
 10
33.599945
 20
-44.342358
 30
0.0
 11
34.154675
 21
-44.342358
 31
0.0
  0
LINE
  8
0
  6
CONTINUOUS
 62
    15
 10
34.154675
 20
-44.342358
 30
0.0
 11
35.373058
 21
-44.431511
 31
0.0
  0
LINE
  8
0
  6
CONTINUOUS
 62
    15
 10
35.373058
 20
-44.431511
 30
0.0
 11
36.165497
 21
-44.540478
 31
0.0
  0
LINE
  8
0
  6
CONTINUOUS
 62
    15
 10
36.165497
 20
-44.540478
 30
0.0
 11
36.274464
 21
-44.639519
 31
0.0
  0
LINE
  8
0
  6
CONTINUOUS
 62
    15
 10
36.274464
 20
-44.639519
 30
0.0
 11
36.076344
 21
-45.649895
 31
0.0
  0
LINE
  8
0
  6
CONTINUOUS
 62
    15
 10
36.076344
 20
-45.649895
 30
0.0
 11
35.967377
 21
-45.748974
 31
0.0
  0
LINE
  8
0
  6
CONTINUOUS
 62
    15
 10
35.967377
 20
-45.748974
 30
0.0
 11
34.758923
 21
-45.540928
 31
0.0
  0
LINE
  8
0
  6
CONTINUOUS
 62
    15
 10
34.758923
 20
-45.540928
 30
0.0
 11
33.659393
 21
-45.451775
 31
0.0
  0
LINE
  8
0
  6
CONTINUOUS
 62
    15
 10
33.659393
 20
-45.451775
 30
0.0
 11
33.599945
 21
-45.451775
 31
0.0
  0
LINE
  8
0
  6
CONTINUOUS
 62
    15
 10
33.599945
 20
-44.0452
 30
0.0
 11
34.352753
 21
-44.0452
 31
0.0
  0
LINE
  8
0
  6
CONTINUOUS
 62
    15
 10
34.352753
 20
-44.0452
 30
0.0
 11
35.264088
 21
-44.13435
 31
0.0
  0
LINE
  8
0
  6
CONTINUOUS
 62
    15
 10
35.264088
 20
-44.13435
 30
0.0
 11
36.076344
 21
-44.233391
 31
0.0
  0
LINE
  8
0
  6
CONTINUOUS
 62
    15
 10
36.076344
 20
-44.233391
 30
0.0
 11
36.274464
 21
-44.233391
 31
0.0
  0
LINE
  8
0
  6
CONTINUOUS
 62
    15
 10
36.274464
 20
-44.233391
 30
0.0
 11
36.373547
 21
-44.13435
 31
0.0
  0
LINE
  8
0
  6
CONTINUOUS
 62
    15
 10
36.373547
 20
-44.13435
 30
0.0
 11
36.274464
 21
-40.221592
 31
0.0
  0
LINE
  8
0
  6
CONTINUOUS
 62
    15
 10
36.274464
 20
-40.221592
 30
0.0
 11
33.599945
 21
-40.013584
 31
0.0
  0
LINE
  8
0
  6
CONTINUOUS
 62
    15
 10
30.440033
 20
-48.056999
 30
0.0
 11
30.529186
 21
-48.056999
 31
0.0
  0
LINE
  8
0
  6
CONTINUOUS
 62
    15
 10
36.462696
 20
-39.904613
 30
0.0
 11
33.599945
 21
-39.815464
 31
0.0
  0
LINE
  8
0
  6
CONTINUOUS
 62
    15
 10
30.935314
 20
-39.706493
 30
0.0
 11
30.737194
 21
-39.706493
 31
0.0
  0
LINE
  8
0
  6
CONTINUOUS
 62
    15
 10
30.737194
 20
-39.904613
 30
0.0
 11
33.599945
 21
-39.815464
 31
0.0
  0
LINE
  8
0
  6
CONTINUOUS
 62
    15
 10
36.571625
 20
-40.013584
 30
0.0
 11
36.670704
 21
-40.716869
 31
0.0
  0
LINE
  8
0
  6
CONTINUOUS
 62
    15
 10
36.670704
 20
-40.716869
 30
0.0
 11
36.670704
 21
-41.122997
 31
0.0
  0
LINE
  8
0
  6
CONTINUOUS
 62
    15
 10
36.670704
 20
-41.122997
 30
0.0
 11
36.779675
 21
-41.4202
 31
0.0
  0
LINE
  8
0
  6
CONTINUOUS
 62
    15
 10
36.779675
 20
-41.4202
 30
0.0
 11
36.779675
 21
-43.431023
 31
0.0
  0
LINE
  8
0
  6
CONTINUOUS
 62
    15
 10
36.779675
 20
-43.93623
 30
0.0
 11
36.779675
 21
-48.056999
 31
0.0
  0
LINE
  8
0
  6
CONTINUOUS
 62
    15
 10
36.779675
 20
-48.056999
 30
0.0
 11
36.670704
 21
-48.056999
 31
0.0
  0
LINE
  8
0
  6
CONTINUOUS
 62
    15
 10
30.638153
 20
-40.013584
 30
0.0
 11
30.529186
 21
-40.716869
 31
0.0
  0
LINE
  8
0
  6
CONTINUOUS
 62
    15
 10
30.529186
 20
-40.716869
 30
0.0
 11
30.529186
 21
-41.122997
 31
0.0
  0
LINE
  8
0
  6
CONTINUOUS
 62
    15
 10
30.529186
 20
-41.122997
 30
0.0
 11
30.440033
 21
-41.4202
 31
0.0
  0
LINE
  8
0
  6
CONTINUOUS
 62
    15
 10
30.440033
 20
-41.4202
 30
0.0
 11
30.440033
 21
-43.431023
 31
0.0
  0
LINE
  8
0
  6
CONTINUOUS
 62
    15
 10
30.529186
 20
-43.93623
 30
0.0
 11
30.440033
 21
-43.93623
 31
0.0
  0
LINE
  8
0
  6
CONTINUOUS
 62
    15
 10
30.440033
 20
-43.93623
 30
0.0
 11
30.440033
 21
-48.056999
 31
0.0
  0
LINE
  8
0
  6
CONTINUOUS
 62
    15
 10
33.599945
 20
-39.62727
 30
0.0
 11
36.274464
 21
-39.706493
 31
0.0
  0
LINE
  8
0
  6
CONTINUOUS
 62
    15
 10
36.274464
 20
-39.706493
 30
0.0
 11
36.462696
 21
-39.706493
 31
0.0
  0
LINE
  8
0
  6
CONTINUOUS
 62
    15
 10
36.462696
 20
-39.706493
 30
0.0
 11
36.571625
 21
-39.815464
 31
0.0
  0
LINE
  8
0
  6
CONTINUOUS
 62
    15
 10
36.571625
 20
-39.815464
 30
0.0
 11
36.571625
 21
-40.013584
 31
0.0
  0
LINE
  8
0
  6
CONTINUOUS
 62
    15
 10
36.571625
 20
-40.013584
 30
0.0
 11
36.462696
 21
-39.904613
 31
0.0
  0
LINE
  8
0
  6
CONTINUOUS
 62
    15
 10
33.599945
 20
-39.62727
 30
0.0
 11
30.935314
 21
-39.706493
 31
0.0
  0
LINE
  8
0
  6
CONTINUOUS
 62
    15
 10
30.737194
 20
-39.706493
 30
0.0
 11
30.638153
 21
-39.815464
 31
0.0
  0
LINE
  8
0
  6
CONTINUOUS
 62
    15
 10
30.638153
 20
-39.815464
 30
0.0
 11
30.638153
 21
-40.013584
 31
0.0
  0
LINE
  8
0
  6
CONTINUOUS
 62
    15
 10
30.638153
 20
-40.013584
 30
0.0
 11
30.737194
 21
-39.904613
 31
0.0
  0
LINE
  8
0
  6
CONTINUOUS
 62
    15
 10
36.779675
 20
-43.431023
 30
0.0
 11
36.670704
 21
-43.93623
 31
0.0
  0
LINE
  8
0
  6
CONTINUOUS
 62
    15
 10
30.440033
 20
-43.431023
 30
0.0
 11
30.529186
 21
-43.93623
 31
0.0
  0
LINE
  8
0
  6
CONTINUOUS
 62
    15
 10
30.529186
 20
-47.938541
 30
0.0
 11
30.529186
 21
-43.93623
 31
0.0
  0
LINE
  8
0
  6
CONTINUOUS
 62
    15
 10
36.670704
 20
-47.972572
 30
0.0
 11
36.670704
 21
-43.93623
 31
0.0
  0
LINE
  8
0
  6
CONTINUOUS
 62
    15
 10
27.223553
 20
-55.799965
 30
0.0
 11
27.312704
 21
-55.700924
 31
0.0
  0
LINE
  8
0
  6
CONTINUOUS
 62
    15
 10
27.312704
 20
-55.700924
 30
0.0
 11
27.520712
 21
-55.393795
 31
0.0
  0
LINE
  8
0
  6
CONTINUOUS
 62
    15
 10
27.520712
 20
-50.460854
 30
0.0
 11
27.629681
 21
-51.065022
 31
0.0
  0
LINE
  8
0
  6
CONTINUOUS
 62
    15
 10
27.629681
 20
-51.065022
 30
0.0
 11
27.629681
 21
-53.085854
 31
0.0
  0
LINE
  8
0
  6
CONTINUOUS
 62
    15
 10
27.629681
 20
-53.085854
 30
0.0
 11
27.520712
 21
-53.789139
 31
0.0
  0
LINE
  8
0
  6
CONTINUOUS
 62
    15
 10
27.520712
 20
-53.789139
 30
0.0
 11
27.520712
 21
-55.998039
 31
0.0
  0
LINE
  8
0
  6
CONTINUOUS
 62
    15
 10
27.520712
 20
-55.998039
 30
0.0
 11
27.312704
 21
-56.206127
 31
0.0
  0
LINE
  8
0
  6
CONTINUOUS
 62
    15
 10
27.312704
 20
-56.206127
 30
0.0
 11
24.449953
 21
-56.206127
 31
0.0
  0
LINE
  8
0
  6
CONTINUOUS
 62
    15
 10
27.520712
 20
-46.637245
 30
0.0
 11
27.520712
 21
-50.460854
 31
0.0
  0
LINE
  8
0
  6
CONTINUOUS
 62
    15
 10
27.522366
 20
-43.955158
 30
0.0
 11
27.629681
 21
-43.93623
 31
0.0
  0
LINE
  8
0
  6
CONTINUOUS
 62
    15
 10
27.192776
 20
-41.458424
 30
0.0
 11
27.541952
 21
-43.438698
 31
0.0
  0
LINE
  8
0
  6
CONTINUOUS
 62
    15
 10
27.541952
 20
-43.438698
 30
0.0
 11
27.522366
 21
-43.955158
 31
0.0
  0
LINE
  8
0
  6
CONTINUOUS
 62
    15
 10
30.826345
 20
-50.86694
 30
0.0
 11
31.034393
 21
-51.065022
 31
0.0
  0
LINE
  8
0
  6
CONTINUOUS
 62
    15
 10
31.034393
 20
-51.065022
 30
0.0
 11
31.143322
 21
-51.362221
 31
0.0
  0
LINE
  8
0
  6
CONTINUOUS
 62
    15
 10
31.143322
 20
-51.362221
 30
0.0
 11
31.143322
 21
-53.085854
 31
0.0
  0
LINE
  8
0
  6
CONTINUOUS
 62
    15
 10
31.143322
 20
-53.085854
 30
0.0
 11
31.034393
 21
-53.382973
 31
0.0
  0
LINE
  8
0
  6
CONTINUOUS
 62
    15
 10
31.034393
 20
-53.382973
 30
0.0
 11
30.826345
 21
-53.49194
 31
0.0
  0
LINE
  8
0
  6
CONTINUOUS
 62
    15
 10
36.373547
 20
-50.86694
 30
0.0
 11
36.165497
 21
-51.065022
 31
0.0
  0
LINE
  8
0
  6
CONTINUOUS
 62
    15
 10
36.165497
 20
-51.065022
 30
0.0
 11
36.076344
 21
-51.362221
 31
0.0
  0
LINE
  8
0
  6
CONTINUOUS
 62
    15
 10
36.076344
 20
-51.362221
 30
0.0
 11
36.076344
 21
-53.085854
 31
0.0
  0
LINE
  8
0
  6
CONTINUOUS
 62
    15
 10
36.076344
 20
-53.085854
 30
0.0
 11
36.165497
 21
-53.382973
 31
0.0
  0
LINE
  8
0
  6
CONTINUOUS
 62
    15
 10
36.165497
 20
-53.382973
 30
0.0
 11
36.373547
 21
-53.49194
 31
0.0
  0
LINE
  8
0
  6
CONTINUOUS
 62
    15
 10
34.600391
 20
-55.463211
 30
0.0
 11
34.600391
 21
-54.462723
 31
0.0
  0
LINE
  8
0
  6
CONTINUOUS
 62
    15
 10
33.936737
 20
-52.471676
 30
0.0
 11
33.936737
 21
-50.470699
 31
0.0
  0
LINE
  8
0
  6
CONTINUOUS
 62
    15
 10
33.599945
 20
-47.191933
 30
0.0
 11
30.935314
 21
-47.191933
 31
0.0
  0
LINE
  8
0
  6
CONTINUOUS
 62
    15
 10
36.373547
 20
-55.799965
 30
0.0
 11
36.462696
 21
-55.700924
 31
0.0
  0
LINE
  8
0
  6
CONTINUOUS
 62
    15
 10
36.462696
 20
-55.700924
 30
0.0
 11
36.670704
 21
-55.393795
 31
0.0
  0
LINE
  8
0
  6
CONTINUOUS
 62
    15
 10
30.440033
 20
-53.085854
 30
0.0
 11
30.529186
 21
-53.789139
 31
0.0
  0
LINE
  8
0
  6
CONTINUOUS
 62
    15
 10
33.599945
 20
-47.191933
 30
0.0
 11
36.274464
 21
-47.191933
 31
0.0
  0
LINE
  8
0
  6
CONTINUOUS
 62
    15
 10
32.599457
 20
-55.463211
 30
0.0
 11
32.599457
 21
-54.462723
 31
0.0
  0
LINE
  8
0
  6
CONTINUOUS
 62
    15
 10
33.273041
 20
-52.471676
 30
0.0
 11
33.273041
 21
-50.470699
 31
0.0
  0
LINE
  8
0
  6
CONTINUOUS
 62
    15
 10
30.826345
 20
-55.799965
 30
0.0
 11
30.737194
 21
-55.700924
 31
0.0
  0
LINE
  8
0
  6
CONTINUOUS
 62
    15
 10
30.737194
 20
-55.700924
 30
0.0
 11
30.529186
 21
-55.393795
 31
0.0
  0
LINE
  8
0
  6
CONTINUOUS
 62
    15
 10
36.670704
 20
-50.460854
 30
0.0
 11
36.779675
 21
-51.065022
 31
0.0
  0
LINE
  8
0
  6
CONTINUOUS
 62
    15
 10
36.779675
 20
-51.065022
 30
0.0
 11
36.779675
 21
-53.085854
 31
0.0
  0
LINE
  8
0
  6
CONTINUOUS
 62
    15
 10
36.779675
 20
-53.085854
 30
0.0
 11
36.670704
 21
-53.789139
 31
0.0
  0
LINE
  8
0
  6
CONTINUOUS
 62
    15
 10
36.670704
 20
-53.789139
 30
0.0
 11
36.670704
 21
-55.998039
 31
0.0
  0
LINE
  8
0
  6
CONTINUOUS
 62
    15
 10
36.670704
 20
-55.998039
 30
0.0
 11
36.462696
 21
-56.206127
 31
0.0
  0
LINE
  8
0
  6
CONTINUOUS
 62
    15
 10
36.462696
 20
-56.206127
 30
0.0
 11
33.599945
 21
-56.206127
 31
0.0
  0
LINE
  8
0
  6
CONTINUOUS
 62
    15
 10
30.440033
 20
-51.065022
 30
0.0
 11
30.440033
 21
-53.085854
 31
0.0
  0
LINE
  8
0
  6
CONTINUOUS
 62
    15
 10
30.529186
 20
-53.789139
 30
0.0
 11
30.529186
 21
-55.998039
 31
0.0
  0
LINE
  8
0
  6
CONTINUOUS
 62
    15
 10
30.529186
 20
-55.998039
 30
0.0
 11
30.737194
 21
-56.206127
 31
0.0
  0
LINE
  8
0
  6
CONTINUOUS
 62
    15
 10
30.737194
 20
-56.206127
 30
0.0
 11
33.599945
 21
-56.206127
 31
0.0
  0
LINE
  8
0
  6
CONTINUOUS
 62
    15
 10
33.599945
 20
-55.799965
 30
0.0
 11
36.373547
 21
-55.799965
 31
0.0
  0
LINE
  8
0
  6
CONTINUOUS
 62
    15
 10
33.599945
 20
-55.799965
 30
0.0
 11
30.826345
 21
-55.799965
 31
0.0
  0
LINE
  8
0
  6
CONTINUOUS
 62
    15
 10
30.826345
 20
-48.364048
 30
0.0
 11
30.826345
 21
-55.799965
 31
0.0
  0
LINE
  8
0
  6
CONTINUOUS
 62
    15
 10
36.373547
 20
-48.364048
 30
0.0
 11
36.373547
 21
-55.799965
 31
0.0
  0
LINE
  8
0
  6
CONTINUOUS
 62
    15
 10
32.599457
 20
-53.135334
 30
0.0
 11
32.599457
 21
-49.962353
 31
0.0
  0
LINE
  8
0
  6
CONTINUOUS
 62
    15
 10
31.935802
 20
-53.798988
 30
0.0
 11
31.935802
 21
-49.275581
 31
0.0
  0
LINE
  8
0
  6
CONTINUOUS
 62
    15
 10
31.272106
 20
-55.463211
 30
0.0
 11
31.272106
 21
-48.871601
 31
0.0
  0
LINE
  8
0
  6
CONTINUOUS
 62
    15
 10
34.600391
 20
-53.135334
 30
0.0
 11
34.600391
 21
-49.921955
 31
0.0
  0
LINE
  8
0
  6
CONTINUOUS
 62
    15
 10
35.264088
 20
-53.798988
 30
0.0
 11
35.264088
 21
-49.113991
 31
0.0
  0
LINE
  8
0
  6
CONTINUOUS
 62
    15
 10
35.927784
 20
-55.463211
 30
0.0
 11
35.927784
 21
-48.669605
 31
0.0
  0
LINE
  8
0
  6
CONTINUOUS
 62
    15
 10
36.670704
 20
-48.056999
 30
0.0
 11
36.670704
 21
-50.460854
 31
0.0
  0
LINE
  8
0
  6
CONTINUOUS
 62
    15
 10
30.529186
 20
-48.056999
 30
0.0
 11
30.529186
 21
-50.460854
 31
0.0
  0
LINE
  8
0
  6
CONTINUOUS
 62
    15
 10
30.529186
 20
-50.460854
 30
0.0
 11
30.440033
 21
-51.065022
 31
0.0
  0
LINE
  8
0
  6
CONTINUOUS
 62
    15
 10
20.148916
 20
-77.91317
 30
0.0
 11
20.110867
 21
-77.045853
 31
0.0
  0
LINE
  8
0
  6
CONTINUOUS
 62
    15
 10
23.110867
 20
-63.890831
 30
0.0
 11
24.89826
 21
-63.952454
 31
0.0
  0
LINE
  8
0
  6
CONTINUOUS
 62
    15
 10
25.886232
 20
-64.048454
 30
0.0
 11
25.965273
 21
-64.086861
 31
0.0
  0
LINE
  8
0
  6
CONTINUOUS
 62
    15
 10
25.965273
 20
-64.086861
 30
0.0
 11
26.004787
 21
-64.202065
 31
0.0
  0
LINE
  8
0
  6
CONTINUOUS
 62
    15
 10
26.004787
 20
-64.202065
 30
0.0
 11
26.110867
 21
-64.854881
 31
0.0
  0
LINE
  8
0
  6
CONTINUOUS
 62
    15
 10
25.886232
 20
-64.048454
 30
0.0
 11
25.886232
 21
-66.429329
 31
0.0
  0
LINE
  8
0
  6
CONTINUOUS
 62
    15
 10
25.938366
 20
-77.33651
 30
0.0
 11
25.863415
 21
-77.369911
 31
0.0
  0
LINE
  8
0
  6
CONTINUOUS
 62
    15
 10
25.863415
 20
-77.369911
 30
0.0
 11
25.69153
 21
-76.534798
 31
0.0
  0
LINE
  8
0
  6
CONTINUOUS
 62
    15
 10
25.938366
 20
-71.45726
 30
0.0
 11
25.938366
 21
-77.33651
 31
0.0
  0
LINE
  8
0
  6
CONTINUOUS
 62
    15
 10
24.89826
 20
-63.952454
 30
0.0
 11
25.886232
 21
-64.048454
 31
0.0
  0
LINE
  8
0
  6
CONTINUOUS
 62
    15
 10
23.110867
 20
-77.904396
 30
0.0
 11
25.243078
 21
-77.904396
 31
0.0
  0
ARC
  8
0
  6
CONTINUOUS
 62
    15
 10
25.243084
 20
-77.804397
 30
0.0
 40
0.099999
 50
269.996821
 51
30.067805
  0
LINE
  8
0
  6
CONTINUOUS
 62
    15
 10
25.329626
 20
-77.754295
 30
0.0
 11
25.136007
 21
-77.419815
 31
0.0
  0
ARC
  8
0
  6
CONTINUOUS
 62
    15
 10
25.04944
 20
-77.469947
 30
0.0
 40
0.100036
 50
30.075546
 51
89.98858
  0
LINE
  8
0
  6
CONTINUOUS
 62
    15
 10
25.049459
 20
-77.369911
 30
0.0
 11
23.110867
 21
-77.369911
 31
0.0
  0
LINE
  8
0
  6
CONTINUOUS
 62
    15
 10
23.110867
 20
-63.737225
 30
0.0
 11
24.89826
 21
-63.798855
 31
0.0
  0
LINE
  8
0
  6
CONTINUOUS
 62
    15
 10
24.89826
 20
-63.798855
 30
0.0
 11
25.886232
 21
-63.894852
 31
0.0
  0
LINE
  8
0
  6
CONTINUOUS
 62
    15
 10
25.886232
 20
-63.894852
 30
0.0
 11
26.004787
 21
-63.952454
 31
0.0
  0
LINE
  8
0
  6
CONTINUOUS
 62
    15
 10
26.004787
 20
-63.952454
 30
0.0
 11
26.044308
 21
-64.029259
 31
0.0
  0
LINE
  8
0
  6
CONTINUOUS
 62
    15
 10
26.044308
 20
-64.029259
 30
0.0
 11
26.110867
 21
-64.854881
 31
0.0
  0
LINE
  8
0
  6
CONTINUOUS
 62
    15
 10
23.110867
 20
-78.237228
 30
0.0
 11
25.521526
 21
-78.237228
 31
0.0
  0
LINE
  8
0
  6
CONTINUOUS
 62
    15
 10
25.521526
 20
-78.237228
 30
0.0
 11
25.915304
 21
-78.193771
 31
0.0
  0
LINE
  8
0
  6
CONTINUOUS
 62
    15
 10
25.915304
 20
-78.193771
 30
0.0
 11
26.020315
 21
-78.117241
 31
0.0
  0
LINE
  8
0
  6
CONTINUOUS
 62
    15
 10
26.020315
 20
-78.117241
 30
0.0
 11
26.072817
 21
-77.91317
 31
0.0
  0
LINE
  8
0
  6
CONTINUOUS
 62
    15
 10
23.110867
 20
-78.058662
 30
0.0
 11
25.521526
 21
-78.058662
 31
0.0
  0
LINE
  8
0
  6
CONTINUOUS
 62
    15
 10
25.521526
 20
-78.058662
 30
0.0
 11
25.915304
 21
-78.015205
 31
0.0
  0
LINE
  8
0
  6
CONTINUOUS
 62
    15
 10
25.915304
 20
-78.015205
 30
0.0
 11
26.020315
 21
-77.938675
 31
0.0
  0
LINE
  8
0
  6
CONTINUOUS
 62
    15
 10
26.020315
 20
-77.938675
 30
0.0
 11
26.072817
 21
-77.734604
 31
0.0
  0
LINE
  8
0
  6
CONTINUOUS
 62
    15
 10
20.335501
 20
-64.048454
 30
0.0
 11
20.335501
 21
-66.429329
 31
0.0
  0
LINE
  8
0
  6
CONTINUOUS
 62
    15
 10
20.283367
 20
-77.33651
 30
0.0
 11
20.358318
 21
-77.369911
 31
0.0
  0
LINE
  8
0
  6
CONTINUOUS
 62
    15
 10
20.358318
 20
-77.369911
 30
0.0
 11
20.530203
 21
-76.534798
 31
0.0
  0
LINE
  8
0
  6
CONTINUOUS
 62
    15
 10
23.110867
 20
-77.904396
 30
0.0
 11
20.978655
 21
-77.904396
 31
0.0
  0
ARC
  8
0
  6
CONTINUOUS
 62
    15
 10
20.978647
 20
-77.804401
 30
0.0
 40
0.099996
 50
149.928918
 51
270.00427
  0
LINE
  8
0
  6
CONTINUOUS
 62
    15
 10
20.892111
 20
-77.754295
 30
0.0
 11
21.085726
 21
-77.419815
 31
0.0
  0
ARC
  8
0
  6
CONTINUOUS
 62
    15
 10
21.172294
 20
-77.469947
 30
0.0
 40
0.100036
 50
90.01142
 51
149.924454
  0
LINE
  8
0
  6
CONTINUOUS
 62
    15
 10
21.172274
 20
-77.369911
 30
0.0
 11
23.110867
 21
-77.369911
 31
0.0
  0
LINE
  8
0
  6
CONTINUOUS
 62
    15
 10
23.110867
 20
-78.237228
 30
0.0
 11
20.700207
 21
-78.237228
 31
0.0
  0
LINE
  8
0
  6
CONTINUOUS
 62
    15
 10
20.700207
 20
-78.237228
 30
0.0
 11
20.306429
 21
-78.193771
 31
0.0
  0
LINE
  8
0
  6
CONTINUOUS
 62
    15
 10
20.306429
 20
-78.193771
 30
0.0
 11
20.201418
 21
-78.117241
 31
0.0
  0
LINE
  8
0
  6
CONTINUOUS
 62
    15
 10
20.201418
 20
-78.117241
 30
0.0
 11
20.148916
 21
-77.91317
 31
0.0
  0
LINE
  8
0
  6
CONTINUOUS
 62
    15
 10
23.110867
 20
-78.058662
 30
0.0
 11
20.700207
 21
-78.058662
 31
0.0
  0
LINE
  8
0
  6
CONTINUOUS
 62
    15
 10
20.700207
 20
-78.058662
 30
0.0
 11
20.306429
 21
-78.015205
 31
0.0
  0
LINE
  8
0
  6
CONTINUOUS
 62
    15
 10
20.306429
 20
-78.015205
 30
0.0
 11
20.201418
 21
-77.938675
 31
0.0
  0
LINE
  8
0
  6
CONTINUOUS
 62
    15
 10
20.201418
 20
-77.938675
 30
0.0
 11
20.148916
 21
-77.734604
 31
0.0
  0
LINE
  8
0
  6
CONTINUOUS
 62
    15
 10
25.45071
 20
-77.013176
 30
0.0
 11
25.733395
 21
-77.631218
 31
0.0
  0
LINE
  8
0
  6
CONTINUOUS
 62
    15
 10
25.733395
 20
-77.631218
 30
0.0
 11
25.733395
 21
-78.035286
 31
0.0
  0
LINE
  8
0
  6
CONTINUOUS
 62
    15
 10
20.771023
 20
-77.013176
 30
0.0
 11
20.488338
 21
-77.631218
 31
0.0
  0
LINE
  8
0
  6
CONTINUOUS
 62
    15
 10
20.488338
 20
-77.631218
 30
0.0
 11
20.488338
 21
-78.035286
 31
0.0
  0
LINE
  8
0
  6
CONTINUOUS
 62
    15
 10
20.110867
 20
-67.302696
 30
0.0
 11
20.110867
 21
-64.854881
 31
0.0
  0
LINE
  8
0
  6
CONTINUOUS
 62
    15
 10
20.283367
 20
-77.33651
 30
0.0
 11
20.283367
 21
-75.39151
 31
0.0
  0
LINE
  8
0
  6
CONTINUOUS
 62
    15
 10
26.110867
 20
-64.854881
 30
0.0
 11
26.110867
 21
-77.045853
 31
0.0
  0
LINE
  8
0
  6
CONTINUOUS
 62
    15
 10
26.072817
 20
-77.91317
 30
0.0
 11
26.110867
 21
-77.045853
 31
0.0
  0
LINE
  8
0
  6
CONTINUOUS
 62
    15
 10
33.679626
 20
-63.897377
 30
0.0
 11
35.467022
 21
-63.959
 31
0.0
  0
LINE
  8
0
  6
CONTINUOUS
 62
    15
 10
36.45499
 20
-64.055008
 30
0.0
 11
36.534031
 21
-64.093399
 31
0.0
  0
LINE
  8
0
  6
CONTINUOUS
 62
    15
 10
36.534031
 20
-64.093399
 30
0.0
 11
36.573547
 21
-64.208603
 31
0.0
  0
LINE
  8
0
  6
CONTINUOUS
 62
    15
 10
36.573547
 20
-64.208603
 30
0.0
 11
36.679626
 21
-64.861427
 31
0.0
  0
LINE
  8
0
  6
CONTINUOUS
 62
    15
 10
36.059803
 20
-66.051857
 30
0.0
 11
35.506535
 21
-65.898262
 31
0.0
  0
LINE
  8
0
  6
CONTINUOUS
 62
    15
 10
35.506535
 20
-65.898262
 30
0.0
 11
34.893997
 21
-65.840652
 31
0.0
  0
LINE
  8
0
  6
CONTINUOUS
 62
    15
 10
34.893997
 20
-65.840652
 30
0.0
 11
33.679626
 21
-65.840652
 31
0.0
  0
LINE
  8
0
  6
CONTINUOUS
 62
    15
 10
36.059803
 20
-66.128654
 30
0.0
 11
35.506535
 21
-65.97506
 31
0.0
  0
LINE
  8
0
  6
CONTINUOUS
 62
    15
 10
35.506535
 20
-65.97506
 30
0.0
 11
34.893997
 21
-65.917458
 31
0.0
  0
LINE
  8
0
  6
CONTINUOUS
 62
    15
 10
34.893997
 20
-65.917458
 30
0.0
 11
33.679626
 21
-65.917458
 31
0.0
  0
LINE
  8
0
  6
CONTINUOUS
 62
    15
 10
36.059803
 20
-66.20546
 30
0.0
 11
35.506535
 21
-66.051857
 31
0.0
  0
LINE
  8
0
  6
CONTINUOUS
 62
    15
 10
35.506535
 20
-66.051857
 30
0.0
 11
34.893997
 21
-65.994255
 31
0.0
  0
LINE
  8
0
  6
CONTINUOUS
 62
    15
 10
34.893997
 20
-65.994255
 30
0.0
 11
33.679626
 21
-65.994255
 31
0.0
  0
LINE
  8
0
  6
CONTINUOUS
 62
    15
 10
36.059803
 20
-66.282265
 30
0.0
 11
35.506535
 21
-66.128654
 31
0.0
  0
LINE
  8
0
  6
CONTINUOUS
 62
    15
 10
35.506535
 20
-66.128654
 30
0.0
 11
34.893997
 21
-66.07106
 31
0.0
  0
LINE
  8
0
  6
CONTINUOUS
 62
    15
 10
34.893997
 20
-66.07106
 30
0.0
 11
33.679626
 21
-66.07106
 31
0.0
  0
LINE
  8
0
  6
CONTINUOUS
 62
    15
 10
36.45499
 20
-64.055008
 30
0.0
 11
36.45499
 21
-66.435867
 31
0.0
  0
LINE
  8
0
  6
CONTINUOUS
 62
    15
 10
36.45499
 20
-66.16832
 30
0.0
 11
36.059803
 21
-66.051857
 31
0.0
  0
LINE
  8
0
  6
CONTINUOUS
 62
    15
 10
36.45499
 20
-66.245125
 30
0.0
 11
36.059803
 21
-66.128654
 31
0.0
  0
LINE
  8
0
  6
CONTINUOUS
 62
    15
 10
36.45499
 20
-66.321922
 30
0.0
 11
36.059803
 21
-66.20546
 31
0.0
  0
LINE
  8
0
  6
CONTINUOUS
 62
    15
 10
36.45499
 20
-66.398727
 30
0.0
 11
36.059803
 21
-66.282265
 31
0.0
  0
LINE
  8
0
  6
CONTINUOUS
 62
    15
 10
36.336437
 20
-66.435867
 30
0.0
 11
36.366074
 21
-66.493477
 31
0.0
  0
LINE
  8
0
  6
CONTINUOUS
 62
    15
 10
36.507126
 20
-66.724739
 30
0.0
 11
36.395905
 21
-67.805519
 31
0.0
  0
LINE
  8
0
  6
CONTINUOUS
 62
    15
 10
36.395905
 20
-67.805519
 30
0.0
 11
36.507126
 21
-67.805519
 31
0.0
  0
LINE
  8
0
  6
CONTINUOUS
 62
    15
 10
36.507126
 20
-67.994652
 30
0.0
 11
36.368099
 21
-67.994652
 31
0.0
  0
LINE
  8
0
  6
CONTINUOUS
 62
    15
 10
36.368099
 20
-67.994652
 30
0.0
 11
36.284679
 21
-68.83226
 31
0.0
  0
LINE
  8
0
  6
CONTINUOUS
 62
    15
 10
36.507126
 20
-67.805519
 30
0.0
 11
36.507126
 21
-66.724739
 31
0.0
  0
POINT
  8
0
  6
CONTINUOUS
 62
    15
 10
36.507126
 20
-65.995201
 30
0.0
  0
LINE
  8
0
  6
CONTINUOUS
 62
    15
 10
36.260288
 20
-74.202995
 30
0.0
 11
36.507126
 21
-74.370033
 31
0.0
  0
LINE
  8
0
  6
CONTINUOUS
 62
    15
 10
36.260288
 20
-72.733192
 30
0.0
 11
36.507126
 21
-72.900215
 31
0.0
  0
LINE
  8
0
  6
CONTINUOUS
 62
    15
 10
36.507126
 20
-77.343056
 30
0.0
 11
36.432175
 21
-77.376457
 31
0.0
  0
LINE
  8
0
  6
CONTINUOUS
 62
    15
 10
36.432175
 20
-77.376457
 30
0.0
 11
36.260288
 21
-76.541336
 31
0.0
  0
LINE
  8
0
  6
CONTINUOUS
 62
    15
 10
36.507126
 20
-70.345352
 30
0.0
 11
36.507126
 21
-67.994652
 31
0.0
  0
LINE
  8
0
  6
CONTINUOUS
 62
    15
 10
36.507126
 20
-71.463799
 30
0.0
 11
36.507126
 21
-77.343056
 31
0.0
  0
LINE
  8
0
  6
CONTINUOUS
 62
    15
 10
36.507126
 20
-71.463799
 30
0.0
 11
36.428909
 21
-71.390022
 31
0.0
  0
ARC
  8
0
  6
CONTINUOUS
 62
    15
 10
36.360284
 20
-71.462754
 30
0.0
 40
0.099996
 50
46.663952
 51
179.999845
  0
LINE
  8
0
  6
CONTINUOUS
 62
    15
 10
36.260288
 20
-71.462753
 30
0.0
 11
36.260288
 21
-76.541336
 31
0.0
  0
LINE
  8
0
  6
CONTINUOUS
 62
    15
 10
36.507126
 20
-70.345352
 30
0.0
 11
36.400665
 21
-70.362595
 31
0.0
  0
ARC
  8
0
  6
CONTINUOUS
 62
    15
 10
36.384678
 20
-70.263882
 30
0.0
 40
0.099998
 50
179.997391
 51
279.199731
  0
LINE
  8
0
  6
CONTINUOUS
 62
    15
 10
36.284679
 20
-70.263878
 30
0.0
 11
36.284679
 21
-68.83226
 31
0.0
  0
LINE
  8
0
  6
CONTINUOUS
 62
    15
 10
35.467022
 20
-63.959
 30
0.0
 11
36.45499
 21
-64.055008
 31
0.0
  0
LINE
  8
0
  6
CONTINUOUS
 62
    15
 10
36.1586
 20
-68.576729
 30
0.0
 11
36.090038
 21
-68.629616
 31
0.0
  0
LINE
  8
0
  6
CONTINUOUS
 62
    15
 10
36.573547
 20
-63.959
 30
0.0
 11
36.613068
 21
-64.035805
 31
0.0
  0
LINE
  8
0
  6
CONTINUOUS
 62
    15
 10
33.679626
 20
-63.897377
 30
0.0
 11
31.892233
 21
-63.959
 31
0.0
  0
LINE
  8
0
  6
CONTINUOUS
 62
    15
 10
30.785706
 20
-64.208603
 30
0.0
 11
30.679626
 21
-64.861427
 31
0.0
  0
LINE
  8
0
  6
CONTINUOUS
 62
    15
 10
31.29945
 20
-66.051857
 30
0.0
 11
31.852713
 21
-65.898262
 31
0.0
  0
LINE
  8
0
  6
CONTINUOUS
 62
    15
 10
31.852713
 20
-65.898262
 30
0.0
 11
32.465256
 21
-65.840652
 31
0.0
  0
LINE
  8
0
  6
CONTINUOUS
 62
    15
 10
32.465256
 20
-65.840652
 30
0.0
 11
33.679626
 21
-65.840652
 31
0.0
  0
LINE
  8
0
  6
CONTINUOUS
 62
    15
 10
31.29945
 20
-66.128654
 30
0.0
 11
31.852713
 21
-65.97506
 31
0.0
  0
LINE
  8
0
  6
CONTINUOUS
 62
    15
 10
31.852713
 20
-65.97506
 30
0.0
 11
32.465256
 21
-65.917458
 31
0.0
  0
LINE
  8
0
  6
CONTINUOUS
 62
    15
 10
32.465256
 20
-65.917458
 30
0.0
 11
33.679626
 21
-65.917458
 31
0.0
  0
LINE
  8
0
  6
CONTINUOUS
 62
    15
 10
31.29945
 20
-66.20546
 30
0.0
 11
31.852713
 21
-66.051857
 31
0.0
  0
LINE
  8
0
  6
CONTINUOUS
 62
    15
 10
31.852713
 20
-66.051857
 30
0.0
 11
32.465256
 21
-65.994255
 31
0.0
  0
LINE
  8
0
  6
CONTINUOUS
 62
    15
 10
32.465256
 20
-65.994255
 30
0.0
 11
33.679626
 21
-65.994255
 31
0.0
  0
LINE
  8
0
  6
CONTINUOUS
 62
    15
 10
31.29945
 20
-66.282265
 30
0.0
 11
31.852713
 21
-66.128654
 31
0.0
  0
LINE
  8
0
  6
CONTINUOUS
 62
    15
 10
31.852713
 20
-66.128654
 30
0.0
 11
32.465256
 21
-66.07106
 31
0.0
  0
LINE
  8
0
  6
CONTINUOUS
 62
    15
 10
32.465256
 20
-66.07106
 30
0.0
 11
33.679626
 21
-66.07106
 31
0.0
  0
LINE
  8
0
  6
CONTINUOUS
 62
    15
 10
30.904263
 20
-64.055008
 30
0.0
 11
30.904263
 21
-66.435867
 31
0.0
  0
LINE
  8
0
  6
CONTINUOUS
 62
    15
 10
30.904263
 20
-66.16832
 30
0.0
 11
31.29945
 21
-66.051857
 31
0.0
  0
LINE
  8
0
  6
CONTINUOUS
 62
    15
 10
30.904263
 20
-66.245125
 30
0.0
 11
31.29945
 21
-66.128654
 31
0.0
  0
LINE
  8
0
  6
CONTINUOUS
 62
    15
 10
30.904263
 20
-66.321922
 30
0.0
 11
31.29945
 21
-66.20546
 31
0.0
  0
LINE
  8
0
  6
CONTINUOUS
 62
    15
 10
30.904263
 20
-66.398727
 30
0.0
 11
31.29945
 21
-66.282265
 31
0.0
  0
LINE
  8
0
  6
CONTINUOUS
 62
    15
 10
30.852123
 20
-66.724739
 30
0.0
 11
30.963348
 21
-67.805519
 31
0.0
  0
LINE
  8
0
  6
CONTINUOUS
 62
    15
 10
30.963348
 20
-67.805519
 30
0.0
 11
30.852123
 21
-67.805519
 31
0.0
  0
LINE
  8
0
  6
CONTINUOUS
 62
    15
 10
30.852123
 20
-67.994652
 30
0.0
 11
30.991156
 21
-67.994652
 31
0.0
  0
LINE
  8
0
  6
CONTINUOUS
 62
    15
 10
30.991156
 20
-67.994652
 30
0.0
 11
31.07457
 21
-68.83226
 31
0.0
  0
LINE
  8
0
  6
CONTINUOUS
 62
    15
 10
30.852123
 20
-67.805519
 30
0.0
 11
30.852123
 21
-66.724739
 31
0.0
  0
POINT
  8
0
  6
CONTINUOUS
 62
    15
 10
30.852123
 20
-65.995201
 30
0.0
  0
LINE
  8
0
  6
CONTINUOUS
 62
    15
 10
31.098965
 20
-74.202995
 30
0.0
 11
30.852123
 21
-74.370033
 31
0.0
  0
LINE
  8
0
  6
CONTINUOUS
 62
    15
 10
31.098965
 20
-72.733192
 30
0.0
 11
30.852123
 21
-72.900215
 31
0.0
  0
LINE
  8
0
  6
CONTINUOUS
 62
    15
 10
30.852123
 20
-77.343056
 30
0.0
 11
30.927074
 21
-77.376457
 31
0.0
  0
LINE
  8
0
  6
CONTINUOUS
 62
    15
 10
30.927074
 20
-77.376457
 30
0.0
 11
31.098965
 21
-76.541336
 31
0.0
  0
LINE
  8
0
  6
CONTINUOUS
 62
    15
 10
30.852123
 20
-70.345352
 30
0.0
 11
30.852123
 21
-67.994652
 31
0.0
  0
LINE
  8
0
  6
CONTINUOUS
 62
    15
 10
30.852123
 20
-71.463799
 30
0.0
 11
30.852123
 21
-77.343056
 31
0.0
  0
LINE
  8
0
  6
CONTINUOUS
 62
    15
 10
30.852123
 20
-71.463799
 30
0.0
 11
30.93034
 21
-71.390022
 31
0.0
  0
ARC
  8
0
  6
CONTINUOUS
 62
    15
 10
30.998966
 20
-71.462755
 30
0.0
 40
0.099998
 50
0.000972
 51
133.336174
  0
LINE
  8
0
  6
CONTINUOUS
 62
    15
 10
31.098965
 20
-71.462753
 30
0.0
 11
31.098965
 21
-76.541336
 31
0.0
  0
LINE
  8
0
  6
CONTINUOUS
 62
    15
 10
30.852123
 20
-70.345352
 30
0.0
 11
30.958588
 21
-70.362595
 31
0.0
  0
ARC
  8
0
  6
CONTINUOUS
 62
    15
 10
30.974572
 20
-70.263883
 30
0.0
 40
0.099998
 50
260.801899
 51
0.002839
  0
LINE
  8
0
  6
CONTINUOUS
 62
    15
 10
31.07457
 20
-70.263878
 30
0.0
 11
31.07457
 21
-68.83226
 31
0.0
  0
LINE
  8
0
  6
CONTINUOUS
 62
    15
 10
31.892233
 20
-63.959
 30
0.0
 11
30.904263
 21
-64.055008
 31
0.0
  0
LINE
  8
0
  6
CONTINUOUS
 62
    15
 10
31.200653
 20
-68.576729
 30
0.0
 11
31.269217
 21
-68.629616
 31
0.0
  0
LINE
  8
0
  6
CONTINUOUS
 62
    15
 10
33.679626
 20
-76.813705
 30
0.0
 11
35.454105
 21
-76.813705
 31
0.0
  0
LINE
  8
0
  6
CONTINUOUS
 62
    15
 10
35.454105
 20
-76.813705
 30
0.0
 11
35.807461
 21
-76.813705
 31
0.0
  0
LINE
  8
0
  6
CONTINUOUS
 62
    15
 10
35.807461
 20
-76.813705
 30
0.0
 11
36.01947
 21
-77.019722
 31
0.0
  0
LINE
  8
0
  6
CONTINUOUS
 62
    15
 10
36.01947
 20
-77.019722
 30
0.0
 11
36.302155
 21
-77.637764
 31
0.0
  0
LINE
  8
0
  6
CONTINUOUS
 62
    15
 10
36.302155
 20
-77.637764
 30
0.0
 11
36.302155
 21
-78.041824
 31
0.0
  0
LINE
  8
0
  6
CONTINUOUS
 62
    15
 10
33.679626
 20
-76.813705
 30
0.0
 11
31.905148
 21
-76.813705
 31
0.0
  0
LINE
  8
0
  6
CONTINUOUS
 62
    15
 10
31.905148
 20
-76.813705
 30
0.0
 11
31.551794
 21
-76.813705
 31
0.0
  0
LINE
  8
0
  6
CONTINUOUS
 62
    15
 10
31.551794
 20
-76.813705
 30
0.0
 11
31.339783
 21
-77.019722
 31
0.0
  0
LINE
  8
0
  6
CONTINUOUS
 62
    15
 10
31.339783
 20
-77.019722
 30
0.0
 11
31.057098
 21
-77.637764
 31
0.0
  0
LINE
  8
0
  6
CONTINUOUS
 62
    15
 10
31.057098
 20
-77.637764
 30
0.0
 11
31.057098
 21
-78.041824
 31
0.0
  0
LINE
  8
0
  6
CONTINUOUS
 62
    15
 10
36.193832
 20
-68.709541
 30
0.0
 11
36.157375
 21
-69.347221
 31
0.0
  0
LINE
  8
0
  6
CONTINUOUS
 62
    15
 10
36.157375
 20
-69.347221
 30
0.0
 11
36.157375
 21
-70.498589
 31
0.0
  0
LINE
  8
0
  6
CONTINUOUS
 62
    15
 10
36.157375
 20
-70.498589
 30
0.0
 11
36.193832
 21
-70.56945
 31
0.0
  0
LINE
  8
0
  6
CONTINUOUS
 62
    15
 10
36.193832
 20
-70.56945
 30
0.0
 11
36.284977
 21
-70.640305
 31
0.0
  0
LINE
  8
0
  6
CONTINUOUS
 62
    15
 10
36.284977
 20
-70.640305
 30
0.0
 11
36.4855
 21
-70.640305
 31
0.0
  0
LINE
  8
0
  6
CONTINUOUS
 62
    15
 10
36.4855
 20
-70.640305
 30
0.0
 11
36.679626
 21
-70.604874
 31
0.0
  0
LINE
  8
0
  6
CONTINUOUS
 62
    15
 10
31.165417
 20
-68.709541
 30
0.0
 11
31.201874
 21
-69.347221
 31
0.0
  0
LINE
  8
0
  6
CONTINUOUS
 62
    15
 10
31.201874
 20
-69.347221
 30
0.0
 11
31.201874
 21
-70.498589
 31
0.0
  0
LINE
  8
0
  6
CONTINUOUS
 62
    15
 10
31.201874
 20
-70.498589
 30
0.0
 11
31.165417
 21
-70.56945
 31
0.0
  0
LINE
  8
0
  6
CONTINUOUS
 62
    15
 10
31.165417
 20
-70.56945
 30
0.0
 11
31.07427
 21
-70.640305
 31
0.0
  0
LINE
  8
0
  6
CONTINUOUS
 62
    15
 10
31.07427
 20
-70.640305
 30
0.0
 11
30.873755
 21
-70.640305
 31
0.0
  0
LINE
  8
0
  6
CONTINUOUS
 62
    15
 10
30.873755
 20
-70.640305
 30
0.0
 11
30.679626
 21
-70.604874
 31
0.0
  0
LINE
  8
0
  6
CONTINUOUS
 62
    15
 10
36.059803
 20
-66.339867
 30
0.0
 11
35.506535
 21
-66.186264
 31
0.0
  0
LINE
  8
0
  6
CONTINUOUS
 62
    15
 10
35.506535
 20
-66.186264
 30
0.0
 11
34.893997
 21
-66.128654
 31
0.0
  0
LINE
  8
0
  6
CONTINUOUS
 62
    15
 10
34.893997
 20
-66.128654
 30
0.0
 11
33.679626
 21
-66.128654
 31
0.0
  0
LINE
  8
0
  6
CONTINUOUS
 62
    15
 10
36.366074
 20
-66.627876
 30
0.0
 11
36.1586
 21
-68.576729
 31
0.0
  0
LINE
  8
0
  6
CONTINUOUS
 62
    15
 10
36.090038
 20
-68.629616
 30
0.0
 11
35.839783
 21
-68.575577
 31
0.0
  0
LINE
  8
0
  6
CONTINUOUS
 62
    15
 10
35.839783
 20
-68.575577
 30
0.0
 11
35.422695
 21
-68.467491
 31
0.0
  0
LINE
  8
0
  6
CONTINUOUS
 62
    15
 10
35.422695
 20
-68.467491
 30
0.0
 11
34.755344
 21
-68.332405
 31
0.0
  0
LINE
  8
0
  6
CONTINUOUS
 62
    15
 10
34.755344
 20
-68.332405
 30
0.0
 11
34.171421
 21
-68.251335
 31
0.0
  0
LINE
  8
0
  6
CONTINUOUS
 62
    15
 10
34.171421
 20
-68.251335
 30
0.0
 11
33.679626
 21
-68.251335
 31
0.0
  0
LINE
  8
0
  6
CONTINUOUS
 62
    15
 10
33.679626
 20
-77.910934
 30
0.0
 11
35.81184
 21
-77.910934
 31
0.0
  0
ARC
  8
0
  6
CONTINUOUS
 62
    15
 10
35.811849
 20
-77.81094
 30
0.0
 40
0.099995
 50
269.995055
 51
30.06705
  0
LINE
  8
0
  6
CONTINUOUS
 62
    15
 10
35.898388
 20
-77.760841
 30
0.0
 11
35.704762
 21
-77.426369
 31
0.0
  0
ARC
  8
0
  6
CONTINUOUS
 62
    15
 10
35.618236
 20
-77.476412
 30
0.0
 40
0.099954
 50
30.043466
 51
90.008707
  0
LINE
  8
0
  6
CONTINUOUS
 62
    15
 10
35.618221
 20
-77.376457
 30
0.0
 11
33.679626
 21
-77.376457
 31
0.0
  0
LINE
  8
0
  6
CONTINUOUS
 62
    15
 10
33.679626
 20
-63.743771
 30
0.0
 11
35.467022
 21
-63.805397
 31
0.0
  0
LINE
  8
0
  6
CONTINUOUS
 62
    15
 10
35.467022
 20
-63.805397
 30
0.0
 11
36.45499
 21
-63.901405
 31
0.0
  0
LINE
  8
0
  6
CONTINUOUS
 62
    15
 10
36.45499
 20
-63.901405
 30
0.0
 11
36.573547
 21
-63.959
 31
0.0
  0
LINE
  8
0
  6
CONTINUOUS
 62
    15
 10
36.613068
 20
-64.035805
 30
0.0
 11
36.679626
 21
-64.861427
 31
0.0
  0
LINE
  8
0
  6
CONTINUOUS
 62
    15
 10
36.679626
 20
-64.861427
 30
0.0
 11
36.679626
 21
-77.052391
 31
0.0
  0
LINE
  8
0
  6
CONTINUOUS
 62
    15
 10
33.679626
 20
-78.243767
 30
0.0
 11
36.090286
 21
-78.243767
 31
0.0
  0
LINE
  8
0
  6
CONTINUOUS
 62
    15
 10
36.090286
 20
-78.243767
 30
0.0
 11
36.484066
 21
-78.20031
 31
0.0
  0
LINE
  8
0
  6
CONTINUOUS
 62
    15
 10
36.484066
 20
-78.20031
 30
0.0
 11
36.589077
 21
-78.123787
 31
0.0
  0
LINE
  8
0
  6
CONTINUOUS
 62
    15
 10
36.589077
 20
-78.123787
 30
0.0
 11
36.641575
 21
-77.919716
 31
0.0
  0
LINE
  8
0
  6
CONTINUOUS
 62
    15
 10
36.641575
 20
-77.919716
 30
0.0
 11
36.679626
 21
-77.052391
 31
0.0
  0
LINE
  8
0
  6
CONTINUOUS
 62
    15
 10
33.679626
 20
-78.065201
 30
0.0
 11
36.090286
 21
-78.065201
 31
0.0
  0
LINE
  8
0
  6
CONTINUOUS
 62
    15
 10
36.090286
 20
-78.065201
 30
0.0
 11
36.484066
 21
-78.021751
 31
0.0
  0
LINE
  8
0
  6
CONTINUOUS
 62
    15
 10
36.484066
 20
-78.021751
 30
0.0
 11
36.589077
 21
-77.945229
 31
0.0
  0
LINE
  8
0
  6
CONTINUOUS
 62
    15
 10
36.589077
 20
-77.945229
 30
0.0
 11
36.641575
 21
-77.741142
 31
0.0
  0
LINE
  8
0
  6
CONTINUOUS
 62
    15
 10
30.904263
 20
-64.055008
 30
0.0
 11
30.825222
 21
-64.093399
 31
0.0
  0
LINE
  8
0
  6
CONTINUOUS
 62
    15
 10
30.825222
 20
-64.093399
 30
0.0
 11
30.785706
 21
-64.208603
 31
0.0
  0
LINE
  8
0
  6
CONTINUOUS
 62
    15
 10
31.29945
 20
-66.339867
 30
0.0
 11
31.852713
 21
-66.186264
 31
0.0
  0
LINE
  8
0
  6
CONTINUOUS
 62
    15
 10
31.852713
 20
-66.186264
 30
0.0
 11
32.465256
 21
-66.128654
 31
0.0
  0
LINE
  8
0
  6
CONTINUOUS
 62
    15
 10
32.465256
 20
-66.128654
 30
0.0
 11
33.679626
 21
-66.128654
 31
0.0
  0
LINE
  8
0
  6
CONTINUOUS
 62
    15
 10
30.993179
 20
-66.627876
 30
0.0
 11
31.200653
 21
-68.576729
 31
0.0
  0
LINE
  8
0
  6
CONTINUOUS
 62
    15
 10
31.269217
 20
-68.629616
 30
0.0
 11
31.51947
 21
-68.575577
 31
0.0
  0
LINE
  8
0
  6
CONTINUOUS
 62
    15
 10
31.51947
 20
-68.575577
 30
0.0
 11
31.93656
 21
-68.467491
 31
0.0
  0
LINE
  8
0
  6
CONTINUOUS
 62
    15
 10
31.93656
 20
-68.467491
 30
0.0
 11
32.603909
 21
-68.332405
 31
0.0
  0
LINE
  8
0
  6
CONTINUOUS
 62
    15
 10
32.603909
 20
-68.332405
 30
0.0
 11
33.187832
 21
-68.251335
 31
0.0
  0
LINE
  8
0
  6
CONTINUOUS
 62
    15
 10
33.187832
 20
-68.251335
 30
0.0
 11
33.679626
 21
-68.251335
 31
0.0
  0
LINE
  8
0
  6
CONTINUOUS
 62
    15
 10
33.679626
 20
-77.910934
 30
0.0
 11
31.547415
 21
-77.910934
 31
0.0
  0
ARC
  8
0
  6
CONTINUOUS
 62
    15
 10
31.547403
 20
-77.810942
 30
0.0
 40
0.099993
 50
149.931311
 51
270.006583
  0
LINE
  8
0
  6
CONTINUOUS
 62
    15
 10
31.460867
 20
-77.760841
 30
0.0
 11
31.654486
 21
-77.426369
 31
0.0
  0
ARC
  8
0
  6
CONTINUOUS
 62
    15
 10
31.741014
 20
-77.476418
 30
0.0
 40
0.09996
 50
89.988962
 51
149.954493
  0
LINE
  8
0
  6
CONTINUOUS
 62
    15
 10
31.741034
 20
-77.376457
 30
0.0
 11
33.679626
 21
-77.376457
 31
0.0
  0
LINE
  8
0
  6
CONTINUOUS
 62
    15
 10
33.679626
 20
-63.743771
 30
0.0
 11
31.892233
 21
-63.805397
 31
0.0
  0
LINE
  8
0
  6
CONTINUOUS
 62
    15
 10
31.892233
 20
-63.805397
 30
0.0
 11
30.904263
 21
-63.901405
 31
0.0
  0
LINE
  8
0
  6
CONTINUOUS
 62
    15
 10
30.904263
 20
-63.901405
 30
0.0
 11
30.785706
 21
-63.959
 31
0.0
  0
LINE
  8
0
  6
CONTINUOUS
 62
    15
 10
30.785706
 20
-63.959
 30
0.0
 11
30.746185
 21
-64.035805
 31
0.0
  0
LINE
  8
0
  6
CONTINUOUS
 62
    15
 10
30.746185
 20
-64.035805
 30
0.0
 11
30.679626
 21
-64.861427
 31
0.0
  0
LINE
  8
0
  6
CONTINUOUS
 62
    15
 10
30.679626
 20
-64.861427
 30
0.0
 11
30.679626
 21
-77.052391
 31
0.0
  0
LINE
  8
0
  6
CONTINUOUS
 62
    15
 10
33.679626
 20
-78.243767
 30
0.0
 11
31.268963
 21
-78.243767
 31
0.0
  0
LINE
  8
0
  6
CONTINUOUS
 62
    15
 10
31.268963
 20
-78.243767
 30
0.0
 11
30.875189
 21
-78.20031
 31
0.0
  0
LINE
  8
0
  6
CONTINUOUS
 62
    15
 10
30.875189
 20
-78.20031
 30
0.0
 11
30.770178
 21
-78.123787
 31
0.0
  0
LINE
  8
0
  6
CONTINUOUS
 62
    15
 10
30.770178
 20
-78.123787
 30
0.0
 11
30.717678
 21
-77.919716
 31
0.0
  0
LINE
  8
0
  6
CONTINUOUS
 62
    15
 10
30.717678
 20
-77.919716
 30
0.0
 11
30.679626
 21
-77.052391
 31
0.0
  0
LINE
  8
0
  6
CONTINUOUS
 62
    15
 10
33.679626
 20
-78.065201
 30
0.0
 11
31.268963
 21
-78.065201
 31
0.0
  0
LINE
  8
0
  6
CONTINUOUS
 62
    15
 10
31.268963
 20
-78.065201
 30
0.0
 11
30.875189
 21
-78.021751
 31
0.0
  0
LINE
  8
0
  6
CONTINUOUS
 62
    15
 10
30.875189
 20
-78.021751
 30
0.0
 11
30.770178
 21
-77.945229
 31
0.0
  0
LINE
  8
0
  6
CONTINUOUS
 62
    15
 10
30.770178
 20
-77.945229
 30
0.0
 11
30.717678
 21
-77.741142
 31
0.0
  0
LINE
  8
0
  6
CONTINUOUS
 62
    15
 10
36.336437
 20
-66.435867
 30
0.0
 11
36.059803
 21
-66.339867
 31
0.0
  0
LINE
  8
0
  6
CONTINUOUS
 62
    15
 10
36.366074
 20
-66.493477
 30
0.0
 11
36.366074
 21
-66.627876
 31
0.0
  0
LINE
  8
0
  6
CONTINUOUS
 62
    15
 10
31.022818
 20
-66.435867
 30
0.0
 11
31.29945
 21
-66.339867
 31
0.0
  0
LINE
  8
0
  6
CONTINUOUS
 62
    15
 10
31.022818
 20
-66.435867
 30
0.0
 11
30.993179
 21
-66.493477
 31
0.0
  0
LINE
  8
0
  6
CONTINUOUS
 62
    15
 10
30.993179
 20
-66.493477
 30
0.0
 11
30.993179
 21
-66.627876
 31
0.0
  0
TEXT
  8
0
  6
CONTINUOUS
 62
    15
 10
-49.005787
 20
-43.118374
 30
0.0
 40
1.36
  1
T
 50
18.0
 11
-49.005787
 21
-43.118374
 31
0.0
  0
TEXT
  8
0
  6
CONTINUOUS
 62
    15
 10
-46.831524
 20
-43.141457
 30
0.0
 40
1.36
  1
A
 50
306.0
 11
-46.831524
 21
-43.141457
 31
0.0
  0
TEXT
  8
0
  6
CONTINUOUS
 62
    15
 10
-46.336735
 20
-45.360573
 30
0.0
 40
1.36
  1
R
 50
234.0
 11
-46.336735
 21
-45.360573
 31
0.0
  0
TEXT
  8
0
  6
CONTINUOUS
 62
    15
 10
-48.152836
 20
-46.332344
 30
0.0
 40
1.36
  1
O
 50
162.0
 11
-48.152836
 21
-46.332344
 31
0.0
  0
TEXT
  8
0
  6
CONTINUOUS
 62
    15
 10
9.523414
 20
-72.844261
 30
0.0
 40
0.75
  1
Contact Damage
 11
9.523414
 21
-72.844261
 31
0.0
  0
LINE
  8
0
  6
CONTINUOUS
 62
    15
 10
20.394588
 20
-67.798973
 30
0.0
 11
20.283367
 21
-67.798973
 31
0.0
  0
LINE
  8
0
  6
CONTINUOUS
 62
    15
 10
20.283367
 20
-67.988106
 30
0.0
 11
20.422396
 21
-67.988106
 31
0.0
  0
LINE
  8
0
  6
CONTINUOUS
 62
    15
 10
20.631893
 20
-68.570183
 30
0.0
 11
20.700457
 21
-68.62307
 31
0.0
  0
LINE
  8
0
  6
CONTINUOUS
 62
    15
 10
20.700457
 20
-68.62307
 30
0.0
 11
20.95071
 21
-68.569023
 31
0.0
  0
POINT
  8
0
  6
CONTINUOUS
 62
    15
 10
20.21155
 20
-67.736244
 30
0.0
  0
POINT
  8
0
  6
CONTINUOUS
 62
    15
 10
20.523977
 20
-68.740456
 30
0.0
  0
POINT
  8
0
  6
CONTINUOUS
 62
    15
 10
21.172884
 20
-69.744667
 30
0.0
  0
POINT
  8
0
  6
CONTINUOUS
 62
    15
 10
21.60549
 20
-70.748878
 30
0.0
  0
POINT
  8
0
  6
CONTINUOUS
 62
    15
 10
21.821789
 20
-71.753082
 30
0.0
  0
POINT
  8
0
  6
CONTINUOUS
 62
    15
 10
21.60549
 20
-72.73394
 30
0.0
  0
POINT
  8
0
  6
CONTINUOUS
 62
    15
 10
20.950573
 20
-73.755661
 30
0.0
  0
POINT
  8
0
  6
CONTINUOUS
 62
    15
 10
20.542004
 20
-75.74073
 30
0.0
  0
POINT
  8
0
  6
CONTINUOUS
 62
    15
 10
20.806377
 20
-74.759872
 30
0.0
  0
POINT
  8
0
  6
CONTINUOUS
 62
    15
 10
20.247595
 20
-76.739098
 30
0.0
  0
LINE
  8
0
  6
CONTINUOUS
 62
    15
 10
20.21155
 20
-67.736244
 30
0.0
 11
20.523977
 21
-68.740456
 31
0.0
  0
LINE
  8
0
  6
CONTINUOUS
 62
    15
 10
21.172884
 20
-69.744667
 30
0.0
 11
21.60549
 21
-70.748878
 31
0.0
  0
LINE
  8
0
  6
CONTINUOUS
 62
    15
 10
21.60549
 20
-70.748878
 30
0.0
 11
21.821789
 21
-71.753082
 31
0.0
  0
LINE
  8
0
  6
CONTINUOUS
 62
    15
 10
21.821789
 20
-71.753082
 30
0.0
 11
21.60549
 21
-72.73394
 31
0.0
  0
LINE
  8
0
  6
CONTINUOUS
 62
    15
 10
21.60549
 20
-72.73394
 30
0.0
 11
20.950573
 21
-73.755661
 31
0.0
  0
LINE
  8
0
  6
CONTINUOUS
 62
    15
 10
20.806377
 20
-74.759872
 30
0.0
 11
20.542004
 21
-75.74073
 31
0.0
  0
LINE
  8
0
  6
CONTINUOUS
 62
    15
 10
20.542004
 20
-75.74073
 30
0.0
 11
20.247595
 21
-76.739098
 31
0.0
  0
LINE
  8
0
  6
CONTINUOUS
 62
    15
 10
20.841442
 20
-69.231743
 30
0.0
 11
20.523977
 21
-68.740456
 31
0.0
  0
LINE
  8
0
  6
CONTINUOUS
 62
    15
 10
20.844988
 20
-69.237221
 30
0.0
 11
21.172884
 21
-69.744667
 31
0.0
  0
LINE
  8
0
  6
CONTINUOUS
 62
    15
 10
20.810833
 20
-74.728844
 30
0.0
 11
20.950573
 21
-73.755661
 31
0.0
  0
LINE
  8
0
  6
CONTINUOUS
 62
    15
 10
20.809628
 20
-74.737221
 30
0.0
 11
20.806377
 21
-74.759872
 31
0.0
  0
LINE
  8
0
  6
CONTINUOUS
 62
    15
 10
21.268612
 20
-69.767921
 30
0.0
 11
21.701214
 21
-70.772133
 31
0.0
  0
LINE
  8
0
  6
CONTINUOUS
 62
    15
 10
21.701214
 20
-70.772133
 30
0.0
 11
21.917517
 21
-71.776337
 31
0.0
  0
LINE
  8
0
  6
CONTINUOUS
 62
    15
 10
21.917517
 20
-71.776337
 30
0.0
 11
21.701214
 21
-72.757195
 31
0.0
  0
LINE
  8
0
  6
CONTINUOUS
 62
    15
 10
21.701214
 20
-72.757195
 30
0.0
 11
21.046301
 21
-73.778915
 31
0.0
  0
LINE
  8
0
  6
CONTINUOUS
 62
    15
 10
20.940716
 20
-69.260475
 30
0.0
 11
21.268612
 21
-69.767921
 31
0.0
  0
LINE
  8
0
  6
CONTINUOUS
 62
    15
 10
20.906557
 20
-74.752098
 30
0.0
 11
21.046301
 21
-73.778915
 31
0.0
  0
LINE
  8
0
  6
CONTINUOUS
 62
    15
 10
20.21155
 20
-67.736244
 30
0.0
 11
20.110867
 21
-67.351112
 31
0.0
  0
LINE
  8
0
  6
CONTINUOUS
 62
    15
 10
20.247595
 20
-76.739098
 30
0.0
 11
20.110867
 21
-77.045853
 31
0.0
  0
POINT
  8
0
  6
CONTINUOUS
 62
    15
 10
25.897747
 20
-69.728081
 30
0.0
  0
LINE
  8
0
  6
CONTINUOUS
 62
    15
 10
25.491045
 20
-66.045311
 30
0.0
 11
24.937777
 21
-65.891708
 31
0.0
  0
LINE
  8
0
  6
CONTINUOUS
 62
    15
 10
24.937777
 20
-65.891708
 30
0.0
 11
24.325237
 21
-65.834106
 31
0.0
  0
LINE
  8
0
  6
CONTINUOUS
 62
    15
 10
24.325237
 20
-65.834106
 30
0.0
 11
23.110867
 21
-65.834106
 31
0.0
  0
LINE
  8
0
  6
CONTINUOUS
 62
    15
 10
25.491045
 20
-66.122116
 30
0.0
 11
24.937777
 21
-65.968513
 31
0.0
  0
LINE
  8
0
  6
CONTINUOUS
 62
    15
 10
24.937777
 20
-65.968513
 30
0.0
 11
24.325237
 21
-65.910912
 31
0.0
  0
LINE
  8
0
  6
CONTINUOUS
 62
    15
 10
24.325237
 20
-65.910912
 30
0.0
 11
23.110867
 21
-65.910912
 31
0.0
  0
LINE
  8
0
  6
CONTINUOUS
 62
    15
 10
25.491045
 20
-66.198921
 30
0.0
 11
24.937777
 21
-66.045311
 31
0.0
  0
LINE
  8
0
  6
CONTINUOUS
 62
    15
 10
24.937777
 20
-66.045311
 30
0.0
 11
24.325237
 21
-65.987709
 31
0.0
  0
LINE
  8
0
  6
CONTINUOUS
 62
    15
 10
24.325237
 20
-65.987709
 30
0.0
 11
23.110867
 21
-65.987709
 31
0.0
  0
LINE
  8
0
  6
CONTINUOUS
 62
    15
 10
25.491045
 20
-66.275719
 30
0.0
 11
24.937777
 21
-66.122116
 31
0.0
  0
LINE
  8
0
  6
CONTINUOUS
 62
    15
 10
24.937777
 20
-66.122116
 30
0.0
 11
24.325237
 21
-66.064514
 31
0.0
  0
LINE
  8
0
  6
CONTINUOUS
 62
    15
 10
24.325237
 20
-66.064514
 30
0.0
 11
23.110867
 21
-66.064514
 31
0.0
  0
LINE
  8
0
  6
CONTINUOUS
 62
    15
 10
25.767675
 20
-66.429329
 30
0.0
 11
25.491045
 21
-66.333321
 31
0.0
  0
LINE
  8
0
  6
CONTINUOUS
 62
    15
 10
25.491045
 20
-66.333321
 30
0.0
 11
24.937777
 21
-66.17971
 31
0.0
  0
LINE
  8
0
  6
CONTINUOUS
 62
    15
 10
24.937777
 20
-66.17971
 30
0.0
 11
24.325237
 21
-66.122116
 31
0.0
  0
LINE
  8
0
  6
CONTINUOUS
 62
    15
 10
24.325237
 20
-66.122116
 30
0.0
 11
23.110867
 21
-66.122116
 31
0.0
  0
LINE
  8
0
  6
CONTINUOUS
 62
    15
 10
25.886232
 20
-66.161766
 30
0.0
 11
25.491045
 21
-66.045311
 31
0.0
  0
LINE
  8
0
  6
CONTINUOUS
 62
    15
 10
25.886232
 20
-66.238571
 30
0.0
 11
25.491045
 21
-66.122116
 31
0.0
  0
LINE
  8
0
  6
CONTINUOUS
 62
    15
 10
25.886232
 20
-66.315376
 30
0.0
 11
25.491045
 21
-66.198921
 31
0.0
  0
LINE
  8
0
  6
CONTINUOUS
 62
    15
 10
25.886232
 20
-66.392174
 30
0.0
 11
25.491045
 21
-66.275719
 31
0.0
  0
LINE
  8
0
  6
CONTINUOUS
 62
    15
 10
25.767675
 20
-66.429329
 30
0.0
 11
25.797314
 21
-66.486923
 31
0.0
  0
LINE
  8
0
  6
CONTINUOUS
 62
    15
 10
25.938366
 20
-66.718185
 30
0.0
 11
25.827145
 21
-67.798973
 31
0.0
  0
LINE
  8
0
  6
CONTINUOUS
 62
    15
 10
25.827145
 20
-67.798973
 30
0.0
 11
25.938366
 21
-67.798973
 31
0.0
  0
LINE
  8
0
  6
CONTINUOUS
 62
    15
 10
25.938366
 20
-67.988106
 30
0.0
 11
25.799337
 21
-67.988106
 31
0.0
  0
LINE
  8
0
  6
CONTINUOUS
 62
    15
 10
25.799337
 20
-67.988106
 30
0.0
 11
25.715923
 21
-68.825714
 31
0.0
  0
LINE
  8
0
  6
CONTINUOUS
 62
    15
 10
25.938366
 20
-67.798973
 30
0.0
 11
25.938366
 21
-66.718185
 31
0.0
  0
POINT
  8
0
  6
CONTINUOUS
 62
    15
 10
25.938366
 20
-65.988663
 30
0.0
  0
LINE
  8
0
  6
CONTINUOUS
 62
    15
 10
25.69153
 20
-74.196457
 30
0.0
 11
25.938366
 21
-74.36348
 31
0.0
  0
LINE
  8
0
  6
CONTINUOUS
 62
    15
 10
25.69153
 20
-72.726646
 30
0.0
 11
25.938366
 21
-72.893669
 31
0.0
  0
LINE
  8
0
  6
CONTINUOUS
 62
    15
 10
25.938366
 20
-70.338814
 30
0.0
 11
25.938366
 21
-67.988106
 31
0.0
  0
LINE
  8
0
  6
CONTINUOUS
 62
    15
 10
25.938366
 20
-71.45726
 30
0.0
 11
25.860149
 21
-71.383469
 31
0.0
  0
ARC
  8
0
  6
CONTINUOUS
 62
    15
 10
25.791528
 20
-71.456206
 30
0.0
 40
0.099998
 50
46.668143
 51
180.004868
  0
LINE
  8
0
  6
CONTINUOUS
 62
    15
 10
25.69153
 20
-71.456215
 30
0.0
 11
25.69153
 21
-76.534798
 31
0.0
  0
LINE
  8
0
  6
CONTINUOUS
 62
    15
 10
25.938366
 20
-70.338814
 30
0.0
 11
25.831905
 21
-70.356049
 31
0.0
  0
ARC
  8
0
  6
CONTINUOUS
 62
    15
 10
25.815919
 20
-70.257339
 30
0.0
 40
0.099995
 50
179.995628
 51
279.199633
  0
LINE
  8
0
  6
CONTINUOUS
 62
    15
 10
25.715923
 20
-70.257332
 30
0.0
 11
25.715923
 21
-68.825714
 31
0.0
  0
LINE
  8
0
  6
CONTINUOUS
 62
    15
 10
25.58984
 20
-68.570183
 30
0.0
 11
25.521276
 21
-68.62307
 31
0.0
  0
LINE
  8
0
  6
CONTINUOUS
 62
    15
 10
25.797314
 20
-66.486923
 30
0.0
 11
25.797314
 21
-66.62133
 31
0.0
  0
LINE
  8
0
  6
CONTINUOUS
 62
    15
 10
25.797314
 20
-66.62133
 30
0.0
 11
25.58984
 21
-68.570183
 31
0.0
  0
LINE
  8
0
  6
CONTINUOUS
 62
    15
 10
25.521276
 20
-68.62307
 30
0.0
 11
25.271023
 21
-68.569023
 31
0.0
  0
LINE
  8
0
  6
CONTINUOUS
 62
    15
 10
25.271023
 20
-68.569023
 30
0.0
 11
24.853933
 21
-68.460945
 31
0.0
  0
LINE
  8
0
  6
CONTINUOUS
 62
    15
 10
24.853933
 20
-68.460945
 30
0.0
 11
24.186586
 21
-68.325851
 31
0.0
  0
LINE
  8
0
  6
CONTINUOUS
 62
    15
 10
24.186586
 20
-68.325851
 30
0.0
 11
23.602663
 21
-68.244789
 31
0.0
  0
LINE
  8
0
  6
CONTINUOUS
 62
    15
 10
23.602663
 20
-68.244789
 30
0.0
 11
23.110867
 21
-68.244789
 31
0.0
  0
LINE
  8
0
  6
CONTINUOUS
 62
    15
 10
20.730688
 20
-66.045311
 30
0.0
 11
21.283957
 21
-65.891708
 31
0.0
  0
LINE
  8
0
  6
CONTINUOUS
 62
    15
 10
21.283957
 20
-65.891708
 30
0.0
 11
21.896496
 21
-65.834106
 31
0.0
  0
LINE
  8
0
  6
CONTINUOUS
 62
    15
 10
21.896496
 20
-65.834106
 30
0.0
 11
23.110867
 21
-65.834106
 31
0.0
  0
LINE
  8
0
  6
CONTINUOUS
 62
    15
 10
20.730688
 20
-66.122116
 30
0.0
 11
21.283957
 21
-65.968513
 31
0.0
  0
LINE
  8
0
  6
CONTINUOUS
 62
    15
 10
21.283957
 20
-65.968513
 30
0.0
 11
21.896496
 21
-65.910912
 31
0.0
  0
LINE
  8
0
  6
CONTINUOUS
 62
    15
 10
21.896496
 20
-65.910912
 30
0.0
 11
23.110867
 21
-65.910912
 31
0.0
  0
LINE
  8
0
  6
CONTINUOUS
 62
    15
 10
20.730688
 20
-66.198921
 30
0.0
 11
21.283957
 21
-66.045311
 31
0.0
  0
LINE
  8
0
  6
CONTINUOUS
 62
    15
 10
21.283957
 20
-66.045311
 30
0.0
 11
21.896496
 21
-65.987709
 31
0.0
  0
LINE
  8
0
  6
CONTINUOUS
 62
    15
 10
21.896496
 20
-65.987709
 30
0.0
 11
23.110867
 21
-65.987709
 31
0.0
  0
LINE
  8
0
  6
CONTINUOUS
 62
    15
 10
20.730688
 20
-66.275719
 30
0.0
 11
21.283957
 21
-66.122116
 31
0.0
  0
LINE
  8
0
  6
CONTINUOUS
 62
    15
 10
21.283957
 20
-66.122116
 30
0.0
 11
21.896496
 21
-66.064514
 31
0.0
  0
LINE
  8
0
  6
CONTINUOUS
 62
    15
 10
21.896496
 20
-66.064514
 30
0.0
 11
23.110867
 21
-66.064514
 31
0.0
  0
LINE
  8
0
  6
CONTINUOUS
 62
    15
 10
20.454058
 20
-66.429329
 30
0.0
 11
20.730688
 21
-66.333321
 31
0.0
  0
LINE
  8
0
  6
CONTINUOUS
 62
    15
 10
20.730688
 20
-66.333321
 30
0.0
 11
21.283957
 21
-66.17971
 31
0.0
  0
LINE
  8
0
  6
CONTINUOUS
 62
    15
 10
21.283957
 20
-66.17971
 30
0.0
 11
21.896496
 21
-66.122116
 31
0.0
  0
LINE
  8
0
  6
CONTINUOUS
 62
    15
 10
21.896496
 20
-66.122116
 30
0.0
 11
23.110867
 21
-66.122116
 31
0.0
  0
LINE
  8
0
  6
CONTINUOUS
 62
    15
 10
20.335501
 20
-66.161766
 30
0.0
 11
20.730688
 21
-66.045311
 31
0.0
  0
LINE
  8
0
  6
CONTINUOUS
 62
    15
 10
20.335501
 20
-66.238571
 30
0.0
 11
20.730688
 21
-66.122116
 31
0.0
  0
LINE
  8
0
  6
CONTINUOUS
 62
    15
 10
20.335501
 20
-66.315376
 30
0.0
 11
20.730688
 21
-66.198921
 31
0.0
  0
LINE
  8
0
  6
CONTINUOUS
 62
    15
 10
20.335501
 20
-66.392174
 30
0.0
 11
20.730688
 21
-66.275719
 31
0.0
  0
LINE
  8
0
  6
CONTINUOUS
 62
    15
 10
20.454058
 20
-66.429329
 30
0.0
 11
20.424419
 21
-66.486923
 31
0.0
  0
LINE
  8
0
  6
CONTINUOUS
 62
    15
 10
20.283367
 20
-66.718185
 30
0.0
 11
20.394588
 21
-67.798973
 31
0.0
  0
LINE
  8
0
  6
CONTINUOUS
 62
    15
 10
20.283367
 20
-67.798973
 30
0.0
 11
20.283367
 21
-66.718185
 31
0.0
  0
POINT
  8
0
  6
CONTINUOUS
 62
    15
 10
20.283367
 20
-65.988663
 30
0.0
  0
LINE
  8
0
  6
CONTINUOUS
 62
    15
 10
20.424419
 20
-66.486923
 30
0.0
 11
20.424419
 21
-66.62133
 31
0.0
  0
LINE
  8
0
  6
CONTINUOUS
 62
    15
 10
20.424419
 20
-66.62133
 30
0.0
 11
20.631893
 21
-68.570183
 31
0.0
  0
LINE
  8
0
  6
CONTINUOUS
 62
    15
 10
20.95071
 20
-68.569023
 30
0.0
 11
21.3678
 21
-68.460945
 31
0.0
  0
LINE
  8
0
  6
CONTINUOUS
 62
    15
 10
21.3678
 20
-68.460945
 30
0.0
 11
22.035147
 21
-68.325851
 31
0.0
  0
LINE
  8
0
  6
CONTINUOUS
 62
    15
 10
22.035147
 20
-68.325851
 30
0.0
 11
22.61907
 21
-68.244789
 31
0.0
  0
LINE
  8
0
  6
CONTINUOUS
 62
    15
 10
22.61907
 20
-68.244789
 30
0.0
 11
23.110867
 21
-68.244789
 31
0.0
  0
LINE
  8
0
  6
CONTINUOUS
 62
    15
 10
23.110867
 20
-76.807152
 30
0.0
 11
24.885347
 21
-76.807152
 31
0.0
  0
LINE
  8
0
  6
CONTINUOUS
 62
    15
 10
24.885347
 20
-76.807152
 30
0.0
 11
25.238699
 21
-76.807152
 31
0.0
  0
LINE
  8
0
  6
CONTINUOUS
 62
    15
 10
25.238699
 20
-76.807152
 30
0.0
 11
25.45071
 21
-77.013176
 31
0.0
  0
LINE
  8
0
  6
CONTINUOUS
 62
    15
 10
23.110867
 20
-76.807152
 30
0.0
 11
21.336386
 21
-76.807152
 31
0.0
  0
LINE
  8
0
  6
CONTINUOUS
 62
    15
 10
21.336386
 20
-76.807152
 30
0.0
 11
20.983034
 21
-76.807152
 31
0.0
  0
LINE
  8
0
  6
CONTINUOUS
 62
    15
 10
20.983034
 20
-76.807152
 30
0.0
 11
20.771023
 21
-77.013176
 31
0.0
  0
LINE
  8
0
  6
CONTINUOUS
 62
    15
 10
25.625072
 20
-68.702988
 30
0.0
 11
25.588614
 21
-69.340675
 31
0.0
  0
LINE
  8
0
  6
CONTINUOUS
 62
    15
 10
25.588614
 20
-69.340675
 30
0.0
 11
25.588614
 21
-70.49205
 31
0.0
  0
LINE
  8
0
  6
CONTINUOUS
 62
    15
 10
25.588614
 20
-70.49205
 30
0.0
 11
25.625072
 21
-70.562904
 31
0.0
  0
LINE
  8
0
  6
CONTINUOUS
 62
    15
 10
25.625072
 20
-70.562904
 30
0.0
 11
25.716219
 21
-70.633751
 31
0.0
  0
LINE
  8
0
  6
CONTINUOUS
 62
    15
 10
25.716219
 20
-70.633751
 30
0.0
 11
25.916739
 21
-70.633751
 31
0.0
  0
LINE
  8
0
  6
CONTINUOUS
 62
    15
 10
25.916739
 20
-70.633751
 30
0.0
 11
26.110867
 21
-70.598335
 31
0.0
  0
LINE
  8
0
  6
CONTINUOUS
 62
    15
 10
20.530203
 20
-76.534798
 30
0.0
 11
20.530203
 21
-75.737221
 31
0.0
  0
LINE
  8
0
  6
CONTINUOUS
 62
    15
 10
20.110867
 20
-67.351112
 30
0.0
 11
20.416582
 21
-69.027298
 31
0.0
  0
LINE
  8
0
  6
CONTINUOUS
 62
    15
 10
20.416582
 20
-69.027298
 30
0.0
 11
20.745882
 21
-70.520576
 31
0.0
  0
LINE
  8
0
  6
CONTINUOUS
 62
    15
 10
20.745882
 20
-70.520576
 30
0.0
 11
20.782473
 21
-71.480545
 31
0.0
  0
LINE
  8
0
  6
CONTINUOUS
 62
    15
 10
20.782473
 20
-71.480545
 30
0.0
 11
20.63612
 21
-73.471581
 31
0.0
  0
LINE
  8
0
  6
CONTINUOUS
 62
    15
 10
20.63612
 20
-73.471581
 30
0.0
 11
20.283367
 21
-75.39151
 31
0.0
  0
LINE
  8
0
  6
CONTINUOUS
 62
    15
 10
20.283367
 20
-68.29689
 30
0.0
 11
20.283367
 21
-67.988106
 31
0.0
  0
LINE
  8
0
  6
CONTINUOUS
 62
    15
 10
20.422396
 20
-67.988106
 30
0.0
 11
20.50581
 21
-68.825714
 31
0.0
  0
LINE
  8
0
  6
CONTINUOUS
 62
    15
 10
20.596661
 20
-68.702988
 30
0.0
 11
20.63312
 21
-69.340675
 31
0.0
  0
LINE
  8
0
  6
CONTINUOUS
 62
    15
 10
20.50581
 20
-69.431931
 30
0.0
 11
20.50581
 21
-68.825714
 31
0.0
  0
LINE
  8
0
  6
CONTINUOUS
 62
    15
 10
20.63312
 20
-69.340675
 30
0.0
 11
20.63312
 21
-70.009201
 31
0.0
  0
LINE
  8
0
  6
CONTINUOUS
 62
    15
 10
20.906557
 20
-74.752098
 30
0.0
 11
14.086393
 21
-74.752098
 31
0.0
  0
LINE
  8
0
  6
CONTINUOUS
 62
    15
 10
20.940716
 20
-69.260475
 30
0.0
 11
13.840862
 21
-69.260475
 31
0.0
  0
LINE
  8
0
  6
CONTINUOUS
 62
    15
 10
23.110867
 20
-63.890831
 30
0.0
 11
21.323473
 21
-63.952454
 31
0.0
  0
LINE
  8
0
  6
CONTINUOUS
 62
    15
 10
23.110867
 20
-63.737225
 30
0.0
 11
21.323473
 21
-63.798855
 31
0.0
  0
LINE
  8
0
  6
CONTINUOUS
 62
    15
 10
20.956869
 20
-63.834473
 30
0.0
 11
20.846529
 21
-63.910873
 31
0.0
  0
LINE
  8
0
  6
CONTINUOUS
 62
    15
 10
20.630697
 20
-63.998257
 30
0.0
 11
20.468822
 21
-63.963303
 31
0.0
  0
LINE
  8
0
  6
CONTINUOUS
 62
    15
 10
20.846529
 20
-63.910873
 30
0.0
 11
20.630697
 21
-63.998257
 31
0.0
  0
LINE
  8
0
  6
CONTINUOUS
 62
    15
 10
20.335501
 20
-64.048454
 30
0.0
 11
20.25646
 21
-64.086861
 31
0.0
  0
LINE
  8
0
  6
CONTINUOUS
 62
    15
 10
20.25646
 20
-64.086861
 30
0.0
 11
20.21694
 21
-64.202065
 31
0.0
  0
LINE
  8
0
  6
CONTINUOUS
 62
    15
 10
20.21694
 20
-64.202065
 30
0.0
 11
20.110867
 21
-64.854881
 31
0.0
  0
LINE
  8
0
  6
CONTINUOUS
 62
    15
 10
20.335501
 20
-63.894852
 30
0.0
 11
20.21694
 21
-63.952454
 31
0.0
  0
LINE
  8
0
  6
CONTINUOUS
 62
    15
 10
20.21694
 20
-63.952454
 30
0.0
 11
20.177425
 21
-64.029259
 31
0.0
  0
LINE
  8
0
  6
CONTINUOUS
 62
    15
 10
20.177425
 20
-64.029259
 30
0.0
 11
20.110867
 21
-64.854881
 31
0.0
  0
LINE
  8
0
  6
CONTINUOUS
 62
    15
 10
21.323473
 20
-63.798855
 30
0.0
 11
20.956869
 21
-63.834473
 31
0.0
  0
LINE
  8
0
  6
CONTINUOUS
 62
    15
 10
21.323473
 20
-63.952454
 30
0.0
 11
20.956869
 21
-63.988079
 31
0.0
  0
LINE
  8
0
  6
CONTINUOUS
 62
    15
 10
20.956869
 20
-63.988079
 30
0.0
 11
20.846529
 21
-64.068169
 31
0.0
  0
LINE
  8
0
  6
CONTINUOUS
 62
    15
 10
20.846529
 20
-64.068169
 30
0.0
 11
20.666668
 21
-64.120598
 31
0.0
  0
LINE
  8
0
  6
CONTINUOUS
 62
    15
 10
20.666668
 20
-64.120598
 30
0.0
 11
20.432852
 21
-64.103127
 31
0.0
  0
LINE
  8
0
  6
CONTINUOUS
 62
    15
 10
20.432852
 20
-64.103127
 30
0.0
 11
20.335501
 21
-64.048454
 31
0.0
  0
LINE
  8
0
  6
CONTINUOUS
 62
    15
 10
20.468822
 20
-63.963303
 30
0.0
 11
20.335501
 21
-63.894852
 31
0.0
  0
LINE
  8
0
  6
CONTINUOUS
 62
    15
 10
20.846529
 20
-63.910873
 30
0.0
 11
20.846529
 21
-59.810493
 31
0.0
  0
LINE
  8
0
  6
CONTINUOUS
 62
    15
 10
20.335501
 20
-63.894852
 30
0.0
 11
20.335501
 21
-60.265312
 31
0.0
  0
TEXT
  8
0
  6
CONTINUOUS
 62
    15
 10
20.965147
 20
-58.391094
 30
0.0
 40
0.75
  1
Contact Damage
 11
20.965147
 21
-58.391094
 31
0.0
  0
LINE
  8
0
  6
CONTINUOUS
 62
    15
 10
20.813936
 20
-58.749245
 30
0.0
 11
20.568405
 21
-59.658886
 31
0.0
  0
TEXT
  8
0
  6
CONTINUOUS
 62
    15
 10
11.242129
 20
-40.29937
 30
0.0
 40
0.75
  1
Contact Damage
 11
11.242129
 21
-40.29937
 31
0.0
  0
LINE
  8
0
  6
CONTINUOUS
 62
    15
 10
24.449953
 20
-44.342358
 30
0.0
 11
23.895224
 21
-44.342358
 31
0.0
  0
LINE
  8
0
  6
CONTINUOUS
 62
    15
 10
23.895224
 20
-44.342358
 30
0.0
 11
22.696657
 21
-44.431511
 31
0.0
  0
LINE
  8
0
  6
CONTINUOUS
 62
    15
 10
22.696657
 20
-44.431511
 30
0.0
 11
21.884401
 21
-44.540478
 31
0.0
  0
LINE
  8
0
  6
CONTINUOUS
 62
    15
 10
21.884401
 20
-44.540478
 30
0.0
 11
21.78532
 21
-44.639519
 31
0.0
  0
LINE
  8
0
  6
CONTINUOUS
 62
    15
 10
24.449953
 20
-44.0452
 30
0.0
 11
23.697104
 21
-44.0452
 31
0.0
  0
LINE
  8
0
  6
CONTINUOUS
 62
    15
 10
23.697104
 20
-44.0452
 30
0.0
 11
22.785809
 21
-44.13435
 31
0.0
  0
LINE
  8
0
  6
CONTINUOUS
 62
    15
 10
22.785809
 20
-44.13435
 30
0.0
 11
21.993328
 21
-44.233391
 31
0.0
  0
LINE
  8
0
  6
CONTINUOUS
 62
    15
 10
21.993328
 20
-44.233391
 30
0.0
 11
21.78532
 21
-44.233391
 31
0.0
  0
LINE
  8
0
  6
CONTINUOUS
 62
    15
 10
21.78532
 20
-44.233391
 30
0.0
 11
21.676352
 21
-44.13435
 31
0.0
  0
LINE
  8
0
  6
CONTINUOUS
 62
    15
 10
24.449953
 20
-44.342358
 30
0.0
 11
25.004681
 21
-44.342358
 31
0.0
  0
LINE
  8
0
  6
CONTINUOUS
 62
    15
 10
25.004681
 20
-44.342358
 30
0.0
 11
26.223064
 21
-44.431511
 31
0.0
  0
LINE
  8
0
  6
CONTINUOUS
 62
    15
 10
24.449953
 20
-44.0452
 30
0.0
 11
25.202761
 21
-44.0452
 31
0.0
  0
LINE
  8
0
  6
CONTINUOUS
 62
    15
 10
25.202761
 20
-44.0452
 30
0.0
 11
26.114096
 21
-44.13435
 31
0.0
  0
LINE
  8
0
  6
CONTINUOUS
 62
    15
 10
21.379192
 20
-43.93623
 30
0.0
 11
21.290041
 21
-43.93623
 31
0.0
  0
POINT
  8
0
  6
CONTINUOUS
 62
    15
 10
20.290041
 20
-42.206127
 30
0.0
  0
POINT
  8
0
  6
CONTINUOUS
 62
    15
 10
21.290041
 20
-41.456127
 30
0.0
  0
POINT
  8
0
  6
CONTINUOUS
 62
    15
 10
22.290041
 20
-41.039429
 30
0.0
  0
POINT
  8
0
  6
CONTINUOUS
 62
    15
 10
23.290041
 20
-40.786129
 30
0.0
  0
POINT
  8
0
  6
CONTINUOUS
 62
    15
 10
24.290041
 20
-40.706127
 30
0.0
  0
POINT
  8
0
  6
CONTINUOUS
 62
    15
 10
25.290041
 20
-40.046131
 30
0.0
  0
POINT
  8
0
  6
CONTINUOUS
 62
    15
 10
26.290041
 20
-39.706127
 30
0.0
  0
LINE
  8
0
  6
CONTINUOUS
 62
    15
 10
20.290041
 20
-42.206127
 30
0.0
 11
21.290041
 21
-41.456127
 31
0.0
  0
LINE
  8
0
  6
CONTINUOUS
 62
    15
 10
21.290041
 20
-41.456127
 30
0.0
 11
22.290041
 21
-41.039429
 31
0.0
  0
LINE
  8
0
  6
CONTINUOUS
 62
    15
 10
22.290041
 20
-41.039429
 30
0.0
 11
23.290041
 21
-40.786129
 31
0.0
  0
LINE
  8
0
  6
CONTINUOUS
 62
    15
 10
23.290041
 20
-40.786129
 30
0.0
 11
24.290041
 21
-40.706127
 31
0.0
  0
LINE
  8
0
  6
CONTINUOUS
 62
    15
 10
20.290041
 20
-42.206127
 30
0.0
 11
21.290041
 21
-43.93623
 31
0.0
  0
LINE
  8
0
  6
CONTINUOUS
 62
    15
 10
24.290041
 20
-40.706127
 30
0.0
 11
25.290041
 21
-40.046131
 31
0.0
  0
LINE
  8
0
  6
CONTINUOUS
 62
    15
 10
26.583035
 20
-39.825798
 30
0.0
 11
26.709229
 21
-39.914196
 31
0.0
  0
LINE
  8
0
  6
CONTINUOUS
 62
    15
 10
26.709229
 20
-39.914196
 30
0.0
 11
26.743633
 21
-40.109306
 31
0.0
  0
LINE
  8
0
  6
CONTINUOUS
 62
    15
 10
26.743633
 20
-40.109306
 30
0.0
 11
26.617437
 21
-40.020908
 31
0.0
  0
LINE
  8
0
  6
CONTINUOUS
 62
    15
 10
26.397661
 20
-39.858482
 30
0.0
 11
26.583035
 21
-39.825798
 31
0.0
  0
LINE
  8
0
  6
CONTINUOUS
 62
    15
 10
26.532701
 20
-43.753246
 30
0.0
 11
25.662029
 21
-41.0401
 31
0.0
  0
LINE
  8
0
  6
CONTINUOUS
 62
    15
 10
25.662029
 20
-41.0401
 30
0.0
 11
24.728411
 21
-40.993465
 31
0.0
  0
LINE
  8
0
  6
CONTINUOUS
 62
    15
 10
25.290041
 20
-40.046131
 30
0.0
 11
26.397661
 21
-39.858482
 31
0.0
  0
LINE
  8
0
  6
CONTINUOUS
 62
    15
 10
24.280773
 20
-40.629841
 30
0.0
 11
25.280773
 21
-39.969837
 31
0.0
  0
LINE
  8
0
  6
CONTINUOUS
 62
    15
 10
26.573767
 20
-39.749508
 30
0.0
 11
26.699963
 21
-39.837902
 31
0.0
  0
LINE
  8
0
  6
CONTINUOUS
 62
    15
 10
26.388393
 20
-39.782192
 30
0.0
 11
26.573767
 21
-39.749508
 31
0.0
  0
LINE
  8
0
  6
CONTINUOUS
 62
    15
 10
25.280773
 20
-39.969837
 30
0.0
 11
26.388393
 21
-39.782192
 31
0.0
  0
LINE
  8
0
  6
CONTINUOUS
 62
    15
 10
21.692247
 20
-43.563679
 30
0.0
 11
21.162695
 21
-42.869606
 31
0.0
  0
LINE
  8
0
  6
CONTINUOUS
 62
    15
 10
21.162695
 20
-42.869606
 30
0.0
 11
21.110723
 21
-42.441761
 31
0.0
  0
LINE
  8
0
  6
CONTINUOUS
 62
    15
 10
21.110723
 20
-42.441761
 30
0.0
 11
21.474499
 21
-41.746513
 31
0.0
  0
LINE
  8
0
  6
CONTINUOUS
 62
    15
 10
21.676352
 20
-44.13435
 30
0.0
 11
21.692247
 21
-43.563679
 31
0.0
  0
LINE
  8
0
  6
CONTINUOUS
 62
    15
 10
21.290041
 20
-43.93623
 30
0.0
 11
20.868731
 21
-43.419872
 31
0.0
  0
LINE
  8
0
  6
CONTINUOUS
 62
    15
 10
20.868731
 20
-43.419872
 30
0.0
 11
20.54941
 21
-42.917286
 31
0.0
  0
LINE
  8
0
  6
CONTINUOUS
 62
    15
 10
20.54941
 20
-42.917286
 30
0.0
 11
20.290041
 21
-42.206127
 31
0.0
  0
LINE
  8
0
  6
CONTINUOUS
 62
    15
 10
22.296282
 20
-43.632511
 30
0.0
 11
22.18358
 21
-42.163403
 31
0.0
  0
LINE
  8
0
  6
CONTINUOUS
 62
    15
 10
22.18358
 20
-42.163403
 30
0.0
 11
22.822222
 21
-41.274208
 31
0.0
  0
LINE
  8
0
  6
CONTINUOUS
 62
    15
 10
20.913418
 20
-43.284634
 30
0.0
 11
15.903322
 21
-43.284634
 31
0.0
  0
LINE
  8
0
  6
CONTINUOUS
 62
    15
 10
24.280773
 20
-40.629841
 30
0.0
 11
24.280773
 21
-36.715744
 31
0.0
  0
TEXT
  8
0
  6
CONTINUOUS
 62
    15
 10
52.09956
 20
34.575264
 30
0.0
 40
0.75
  1
Tree
 11
52.09956
 21
34.575264
 31
0.0
  0
LINE
  8
0
  6
CONTINUOUS
 62
    15
 10
51.895786
 20
34.469337
 30
0.0
 11
49.78849
 21
33.511105
 31
0.0
  0
ENDSEC
  0
EOF
